Alexisonfire Tabs

Rough Hands

3 versions

TAB

            Rough Hands Tab by Alexisonfire


100%, flat

Guitar 1//////////////////////////

Intro (00:00 – 00:52)

*No Distortion* 

Eb|---------------------------------|
Bb|---------------------------------|
Gb|---------------------------------| x3 
Db|-5--544-7----\2-5--544-9----22---|
Ab|---------------------------------|
Eb|---------------------------------|

Eb|---------------------------|
Bb|---------------------------|
Gb|---------------------------|
Db|-5--544-7----\2-5--544\2---|
Ab|---------------------------|
Eb|---------------------------|

Verse (00:52 – 01:24)

*No Distortion* 

Eb|-------------------|
Bb|-----8-88-5---3b---|
Gb|-7-----------------| 
Db|-7-----------------|
Ab|-7-----------------|
Eb|-5-----------------|

Eb|---------------------|
Bb|-----8-88-5---5-3b---|
Gb|-7-------------------| 
Db|-7-------------------|
Ab|-7-------------------|
Eb|-5-------------------|

Eb|-------------------|
Bb|-----8-88-5---3b---|
Gb|-7-----------------| 
Db|-7-----------------|
Ab|-7-----------------|
Eb|-5-----------------|

Eb|---------------------|
Bb|-----8-88-5---5-3b---|
Gb|-7-------------------| 
Db|-7-------------------|
Ab|-7-------------------|
Eb|-5-------------------|

Verse 2 (01:24 – 02:04)

*Distortion*

Eb|-12----------------|
Bb|-------12-10--10---|
Gb|-------------------| x3
Db|-------------------|
Ab|-------------------|
Eb|-------------------|

Eb|-121212------------|
Bb|-------12-10--10---|
Gb|-------------------| 
Db|-------------------|
Ab|-------------------|
Eb|-------------------|

Eb|-12----------------|
Bb|-------12-10--10---|
Gb|-------------------| x3
Db|-------------------|
Ab|-------------------|
Eb|-------------------|

Eb|-------------------------|
Bb|-------------------------|
Gb|-----9---9--9-99999999---| x2
Db|-9-----99-99-9-----------|
Ab|-------------------------|
Eb|-------------------------|

Eb|---------|
Bb|-9-999---|
Gb|-9-999---|
Db|---------|
Ab|---------|
Eb|---------|

Chorus (02:04 – 02:35)

Eb|---------------------------------------|
Bb|---------------------------------------|
Gb|---------------------------------------| x4 
Db|-2-----2-------5----10-----------------|
Ab|-2-----2-------5----10-----------------|
Eb|-0--87-0-------3----8------------------|

Interlude (02:35 – 03:07)

*No Distortion* 

Eb|-----------------------------|
Bb|-----------------------------|
Gb|-----------------------------|
Db|-5----/7---2---7----/9---2---|
Ab|-----------------------------|
Eb|-----------------------------|

Eb|-------------------------------|
Bb|-------------------------------|
Gb|-------------------------------|
Db|-5----/7---2---7----/9---16b---|
Ab|-------------------------------|
Eb|-------------------------------|

Verse 3 (03:07 – 03:39)

*Distortion*

Eb|-12----------------|
Bb|-------12-10--10---|
Gb|-------------------| x3
Db|-------------------|
Ab|-------------------|
Eb|-------------------|

Eb|-121212------------|
Bb|-------12-10--10---|
Gb|-------------------| 
Db|-------------------|
Ab|-------------------|
Eb|-------------------|

Eb|-12----------------|
Bb|-------12-10--10---|
Gb|-------------------| x3
Db|-------------------|
Ab|-------------------|
Eb|-------------------|

Eb|-------------------------|
Bb|-------------------------|
Gb|-----9---9--9-99999999---| x2
Db|-9-----99-99-9-----------|
Ab|-------------------------|
Eb|-------------------------|

Bridge (03:39 – 04:09)

*No Distortion* 

Eb|---------------------------------|
Bb|---------------------------------|
Gb|---------------------------------| x3 
Db|-5--544-7----\2-5--544-9----22---|
Ab|---------------------------------|
Eb|---------------------------------|

Eb|---------------------------|
Bb|---------------------------|
Gb|---------------------------|
Db|-5--544-7----\2-5--544\2---|
Ab|---------------------------|
Eb|---------------------------|

Eb|---------------------------------|
Bb|---------------------------------|
Gb|---------------------------------| x3 
Db|-5--544-7----\2-5--544-9----22---|
Ab|---------------------------------|
Eb|---------------------------------|

Eb|---------------------------|
Bb|---------------------------|
Gb|---------------------------|
Db|-5--544-7----\2-5--544\2---|
Ab|---------------------------|
Eb|---------------------------|

Chorus 2 (04:09 – 05:30)

*Distortion*

Eb|---------------------------------------|
Bb|---------------------------------------|
Gb|---------------------------------------| x4 
Db|-2-----2-------5----10-----------------|
Ab|-2-----2-------5----10-----------------|
Eb|-0--87-0-------3----8------------------|

Guitar 2///////////////////////////////

Intro (00:00 – 00:52)

Eb|---------------------------------------|
Bb|---------------------------------------|
Gb|---------------------------------------| x4 
Db|---------------------------------------|
Ab|---------------------------------------|
Eb|-00000000-33333333-88888888-77777777---|

Verse (00:52 – 01:24)

N/A

Verse 2 (01:24 – 02:04)

Eb|---------|
Bb|-9-999---|
Gb|-9-999---|
Db|---------|
Ab|---------|
Eb|---------|

Chorus (02:04 – 02:35)

N/A

Interlude (02:35 – 03:07)

N/A

Verse 3 (03:07 – 03:39)

N/A

Bridge (03:39 – 04:09)

Eb|---------------------------------------|
Bb|---------------------------------------|
Gb|---------------------------------------| 
Db|-55-5-5-55-1010-10-10-1010-99-9-9-99---|
Ab|-55-5-5-55-1010-10-10-1010-99-9-9-99---|
Eb|-33-3-3-33-8-8--8--8--8-8--77-7-7-77---|

Eb|-------------------------------------------------|
Bb|-------------------------------------------------|
Gb|-------------------------------------------------| x2
Db|-22-2-2-22-55-5-5-55-1010-10-10-1010-99-9-9-99---|
Ab|-22-2-2-22-55-5-5-55-1010-10-10-1010-99-9-9-99---|
Eb|-00-0-0-00-33-3-3-33-8-8--8--8--8-8--77-7-7-77---|

Chorus 2 (04:09 – 05:30)

N/A    

Added On December 4th, 2013

SHARE

Comments

blog comments powered by Disqus

VERSIONS

ADVERTISEMENT