All-American Rejects Tabs

Fallin Apart

1 versions

TAB

            -----------------------------------------------------------------------------
			     FALLIN' APART - All-American Rejects
-----------------------------------------------------------------------------
Tabbed by: chris_james

I know its not quite the full tab yet, but I'm working on it and I'll add the rest 
in at some point.

Tuning: Standard

Verse - 2nd half (palm mute if you wish)

e|--------------------------------------------------------------------------------|
B|--------------------------------------------------------------------------------|
G|----2-2-2--------7-7-7--------2-2-2--------5-5-5--------2-2-2--------7--7--7--7-|
D|----2-2-2--------7-7-7--------2-2-2--------5-5-5--------2-2-2--------7--7--7--7-|
A|----0-0-0--------5-5-5--------0-0-0--------3-3-3--------0-0-0--------5--5--5--5-|
E|--------------------------------------------------------------------------------|

Chorus

e|--------------------------------------------------------------|
B|--------------------------------------------------------------|
G|----2--2--2--2--5--5--5--5------------------------------------|
D|----2--2--2--2--5--5--5--5--5--5--5--5--5--5--5--5--6---------|   x2
A|----0--0--0--0--3--3--3--3--5--5--5--5--5--5--5--5--6---------|
E|----------------------------3--3--3--3--3--3--3--3--4---------|

Solo

e|-----------------------------------------------------------------|
B|----/13--12--10h12p10-----------------------8--------------------|
G|----------------------12---------5--7p5-7/9---7--5---------------|
D|-----------------------------5/7--------------------7----5-------|
A|-----------------------------------------------------------------|
E|-----------------------------------------------------------------|

e|-----------------------------------------------------------------------|
B|----/13--12--10h12p10--------------13--15p13--15/17--15--13------------|
G|----------------------12-----12/14----------------------------12\------|
D|-----------------------------------------------------------------------|
A|-----------------------------------------------------------------------|
E|-----------------------------------------------------------------------|

Bridge - Distant

e|----------------------|
B|----------------------|
G|------------9---------|
D|----7-7--7--9---------| Repeated
A|----7-7--7--7---------|
E|----5-5--5------------|

Outro - also distant, listen carefully
 
e|------------------------------------|
B|----------------------5-------------|
G|----5/7-------------5---7-----------|
D|--------------5--7------------------|
A|------------------------------------|
E|------------------------------------|

| /  slide up
| \  slide down
| h  hammer-on
| p  pull-off
| ~  vibrato
| +  harmonic
| x  Mute note
=============================================================================    

Added On December 16th, 2013

SHARE

Comments

blog comments powered by Disqus

ADVERTISEMENT