All-American Rejects Tabs

I Wanna

2 versions

TAB

            Song: I wanna(touch you)
Artist: The All American Rejects
Album: When the World comes Down
Description: This is Nick Wheeler's part of the song, I Wanna.

Verse:


E------------------------------------------------|
B------------------------------------------------|
G-----------7-7--7-7--5-5--5-5----------   play--| x2
D-5-5--5-5--7-7--7-7--5-5--5-5--5-5--5-5---------|
A-5-5--5-5--5-5--5-5--3-3--3-3--5-5--5-5---------|
E-3-3--3-3----------------------3-3--3-3---------|


Prechorus:

E-------|
B-------|
G-9-7-5-|
D-9-7-5-|   mess around with these chords and you should get it....
A-7-5-3-|
E-------|


chorus:

E----------------------|
B----------------------|
G--------7---------5---|
D-5------7-x2 2----5---| x2
A-5-x9---5----2 x6-3---|
E-3-----------0--------|


solo:

E--------------------------------------------------7-7-7h8p7-----------------|
B-10-8-8-10-8-8-10-10-10-12(or 10b)-10-8-8-10-10-8-----------10-8-10-9--7h8p-|
G----------------------------------------------------------------------9-----|
D----------------------------------------------------------------------------|
A----------------------------------------------------------------------------|
E----------------------------------------------------------------------------|


E---------------|
B7-10-8-10-8-10-|
G---------------|  END OF SOLO
D---------------|
A---------------|
E---------------|


Bridge part 1:

same as chorus play x2


Bridge part 2:

E---------|
B---------|
G---7---5-|
D-5-7-2-5-| play once let the chords ring out
A-5-5-2-3-|
E-3---0---|


When Tyson Ritter (singer) starts singing the chorus really high start play along with him.

Here is the order


Verse
prechorus
chorus
verse
prechorus
chorus
solo
bridge part1
bridge part 2
chorus x2
play solo along with high chorus


Well that's the end of an easy song with an easy, but sweet sounding, solo. I hopefully 
have mike kennerty's part up soon. Enjoy!    

Added On December 16th, 2013

SHARE

Comments

blog comments powered by Disqus

VERSIONS

ADVERTISEMENT