American Hi-Fi Tabs

Dont Wait For The Sun

3 versions

TAB

            Dont Wait For The Sun Tab by American Hi-fi


This is the tab for don't wait for the sun..


the solo
E-----------------------------------------------------------------|
H-----------------------8-----------------------------------------|
G--7----10----7----5---------5------------------7--------------7--|
D---------------------------------5----7-------------5----7-------|
A-----------------------------------------------------------------|
E-----------------------------------------------------------------|

the rest
E-----------------------------------------------------------------|
H-----------------------------------------------------------------|
G--------7--------------------------------------------------------|
D--------7--------8--------10--------6----------------------------|
A--------5--------8--------10--------8----------------------------|
E-----------------6--------8---------8----------------------------|
I don't need to know.. cuz tommorow I'll be fine

this is practically it...the chorus and the rest is the same..

tell me if I'm wrong, my email:     capek.michal@hotmail.com    

Added On December 4th, 2013

SHARE

Comments

blog comments powered by Disqus

VERSIONS

ADVERTISEMENT