Amon Amarth Tabs

Where Death Seems To Dwell

4 versions

TAB

            Where Death Seems To Dwell Tab by Amon Amarth


Song: Where Death Seems to Dwell
Artist: Amon Amarth
Album: Fate of Norns
Tuning: B
by Johannes Wilske
j.wilske@web.de

Symbols:
(*x) = How often to play
. = palm muted

Edit: I changed something with the 2cnd guitar, now everything should be correct. Have fun with this great song!

                          ---------------------------------

        Gtr.1
||----------------------------|          x2
||-----------------7----------|
||-----9---9---7-------7-9----|
||----------------------------|
||---7---7---7---7---7--------|
||----------------------------|
|pm                           |
|                             |
|                             |
|       Gtr.2                 |
||----------------------------|
||----------------------------|
||----------------------------|
||---2------------------------|
||---2------------------------|
||---0------------------------|
|pm


        Gtr.1
||------------------------------|       x2
||------------------------------|
||------------------------------|
||-----12---12---11---11---11---|
||---9----9----9----9----9------|
||------------------------------|
|pm                             |
|                               |
|                               |
|       Gtr.2                   |
||------------------------------|
||------------------------------|
||------------------------------|
||---4--------------------------|
||---4--------------------------|
||---2--------------------------|
|pm


        Gtr.1
||---------------------------|        x2
||---------------------------|
||-----9---9---7---7---7-----|
||---------------------------|
||---------------------------|
||---8---8---8---8---8-------|
|pm                          |
|                            |
|                            |
|       Gtr.2                |
||---------------------------|
||---------------------------|
||---5-----------------------|
||---5-----------------------|
||---3-----------------------|
||---------------------------|
|pm


        Gtr.1
||---------------------------|
||---------------------------|
||-----9---9---7---7---------|
||---------------------------|
||---------------------------|
||---7---7---7---7---7-5-----|
|pm                          |
|                            |
|                            |
|       Gtr.2                |
||---------------------------|
||---------------------------|
||---------------------------|
||---4-----------------------|
||---4-----------------------|
||---2-----------------------|
|pm


        Gtr.1
||--------------------------------|
||--------------------------------|
||-----9---9---7------------------|
||--------------------------------|
||--------------------------------|
||---7---7---7---7--10-10-9-10----|
|pm                               |
|                                 |
|                                 |
|       Gtr.2                     |
||--------------------------------|
||--------------------------------|
||--------------------------------|
||---4----------------------------|
||---4----------------------------|
||---2--------------3--3--2-3-----|
|pm

                        -----------------------------------
                                   repeat all x 2


        Gtr. 1    

Added On December 4th, 2013

SHARE

Comments

blog comments powered by Disqus