Amps Tabs

Moms Drunk

1 versions

TAB

            Oooooh how
generate the wave...
----------------------------------------------|
--9---------------------5---------------------|
--10--6--4--6--4--5--8--5---------------------|
--10--7--5--7--5--7--9--5---------------------|
--8---7--5--7--5--7--9--3---------------------|
------5--3--5--3--5--7------------------------|

----------------------------------------------|
-----------------5--10------------------------|
--4--6--4--6--8--5--10------------------------|
--5--7--5--7--9--5--10------------------------|
--5--7--5--7--9--3--8-------------------------|
--3--5--3--5--7-------------------------------|

----------------------------------------------|
------------10--------------------------------|
--6--4--9---10--6--4--------------------------|
--7--5--10--10--7--5--------------------------|
--7--5--10--8---7--5--------------------------|
--5--3--8-------5--3--------------------------|    

Added On December 16th, 2013

SHARE

Comments

blog comments powered by Disqus

ADVERTISEMENT