Angels And Airwaves Tabs

Good Day

5 versions

TAB

            Good Day Tab by Angels And Airwaves


These tabs are not intended to be accurate or official tabs for the artist, but are
by-ear transcriptions. These tabs are to be used for study, skill development, and
only. The goal of Mxtabs is to provide a valuable resource for musicians who want to 
their instrument skills. We do not seek to violate copyrights, and we encourage that you
the artist's album and official sheet music.

Main riff, played during intro and verses
------------------11--------------------------------11---------|
--12-------14--------12------------12--------14---------12-----|
--------11---------------------11-------11---------------------|
---------------------------------------------------------------|
---------------------------------------------------------------|
---------------------------------------------------------------|

Rhythm:
----------------------------------------------------------------------------|
----------------------------------------------------------------------------|
----------------------------------------------------------------------------|
-9-9-9-9-9-9-9-9-9-9-9-9-9-9-9---9--9-9-9-9-9-9-9-9-9-9-9-9-9-9-9---9--9----|
-9-9-9-9-9-9-9-9-9-9-9-9-9-9-9---9--9-9-9-9-9-9-9-9-9-9-9-9-9-9-9---9--9----|
-7-7-7-7-7-7-7-7-9-9-9-9-9-9-9--11-11-7-7-7-7-7-7-7-7-9-9-9-9-9-9---11-11---|

Pre-chorus
-----------------------------|
-----------------------------|
-----------------------------|
-9-----9----9------11h13-----|
-9----------9----------------|
-7----------9----------------|


First chorus
---------------------------|
---------------------------|
---------------------------|
-9-------------------------|
-9-------------------------|
-7-------------------------|

Acoustic(during chorus):
-2--2--2--2--2--2--2--2-|
-4--4--4--4--4--4--4--4-|
-4--4--4--4--4--4--4--4-|
-4--4--4--4--4--4--4--4-|
-2--2--2--2--2--2--2--2-|
------------------------|


Repeat main riff.

Repeat Pre-chorus.


2nd Chorus(electric).
----------------------------------|
----------------------------------|
----------------------------------|
-9-9-9-9-9-9-9-9-6-6-6-6-9-9-9-9--|
-9-9-9-9-9-9-9-9-6-6-6-6-9-9-9-9--|
-7-7-7-7-6-6-6-6-4-4-4-4-6-6-6-6--|


Solo
--14-14-12-12-11-11----------11--------------------------------------------|
---------------------14-14-------12--------12-12---------12-12------12-----|
--------------------------------------9-9------------9-9----------9--------|
---------------------------------------------------------------------------|
---------------------------------------------------------------------------|
---------------------------------------------------------------------------|

---------------------------------------------------------------------------|
---------------------------------------------------------------------------|
-11-11-9-9-8-8--------8----------------------------------------------------|
---------------11-11----9-------9-9--------9-9-----9-----------------------|
----------------------------7-7-------7-7--------7-------------------------|
---------------------------------------------------------------------------|

Repeat solo.

End on:
---------------------------|
---------------------------|
---------------------------|
-9-------------------------|
-9-------------------------|
-7-------------------------|

I'm tabbing other A&A songs so I'll post them later.


Have fun and good luck.    

Added On December 4th, 2013

SHARE

Comments

blog comments powered by Disqus

VERSIONS

ADVERTISEMENT