Anthrax Tabs

Room For One More

3 versions

TAB

            Room For One More Tab by Anthrax


This is the tab for Anthrax's song "Room For One More"

Tunings:  D  A  D  G  B  E   (just drop D tuning)

Intro:
----------------------------
----------------------------
----------------------------
----------------------------
-0------6-------------------
-0------6------------------- Repeat several times

---------------------------
---------------------------
-5--6-7--------------------
-0-------------------------
---------------------------
----------0-0-0-0----------  Play a few times

Verse:
---------------------------------------
---------------------------------------
---------------------------------------
---------------------------------------
-3-3-3-3-3-0--0--0--0------------------
-3-3-3-3-3-0--0--0--0------------------ This part is a little tricky,
It's pretty close to what is being played, use fast alternate picking
for the "3's", play at the same pace as the drums.

Pre Chorus:
----------------------------------------------------------------------
----------------------------------------------------------------------
-5-6-7---------------------5-6-7--------------------5-6-7-------------
-0-------------------------0------------------------0-----------------
---------------3s8----------------------8s3-----------------------3s8-
-------0-0-0-0-3s8-0-0-0-0------0-0-0-0-8s3-0-0-0-0-------0-0-0-0-3s8-

-----------------------------
-----------------------------
--------5-6-7----------------
--------0--------------------
----------------------5s8----
0-0-0-0-------0-0-0-0-5s8----

Then play verse riff a couple of times then...

Chorus:
---------------------------------------------
---------------------------------------------
---------------------------------------------
---------------------------------------------
-0---3s5--5s3--5-3-0----0--3s5--5s3-3-3-3-3--
-0---3s5--5s3--5-3-0----0--3s5--5s3-3-3-3-3--

play this during the solo
--------------------------------------------------
--------------------------------------------------
--------------------------------------------------
--------------------------------------------------
-3-3-3-3-3-0--0--0--0---5-5-5-5--3-3-3-3-3-0------
-3-3-3-3-3-0--0--0--0---5-5-5-5--3-3-3-3-3-0------  repeat a few times

Well, this is more or less the whole song.  Certain parts aren't exact
but close enough.  Figure out rhythm by listening to the album.  Have
fun

Dimebag Derek    

Added On December 4th, 2013

SHARE

Comments

blog comments powered by Disqus

VERSIONS

ADVERTISEMENT