Area 7 Tabs

Skin Deep

2 versions

TAB

            Skin Deep Tab by Area 7


Area 7, Skin Deep.
Tabbed by Brett Massingham, kornfreak_40@hotmail.com.
  
Artist: Area 7
Title: Skin Deep
Album: Bitter and Twisted

Standard Tuning

Verse 1

E|---------------------------------|
B|---------------------------------|
G|---------------------------------|
D|-----------------2-2-2---2-2-2---| x 4
A|---2-2-2---2-3-------------------|
E|---------------------------------|

E|-----------------------------------|
B|-----------------------------------|
G|-----------------------------------|
D|---2-2-2---2-2-2-------------------|
A|-------------------2-2-3-3-3-3-3---|
E|-----------------------------------|

E|-----------------------------------|
B|-----------------------------------|
G|-----------------------------------|
D|---2-2-2---2-2-2-------------------|
A|-------------------2-2-2---2-2-2---|
E|-----------------------------------|

Chorus

E|-----------------------------------|
B|-----------------------------------|
G|-----------------------------------|
D|---2-2-2---2-2-2-------------------| x 3
A|-------------------2-2-3-3-3-3-3---|
E|-----------------------------------|

E|-----------------------------------|
B|-----------------------------------|
G|-----------------------------------|
D|---2-2-2---2-2-2-------------------|
A|-------------------2-2-2---2-2-2---|
E|-----------------------------------|

Verse 2

E|---------------------------------|
B|---------------------------------|
G|---------------------------------|
D|-----------------2-2-2---2-2-2---| x 2
A|---2-2-2---2-3-------------------|
E|---------------------------------|

E|-----------------------------------|
B|-----------------------------------|
G|-----------------------------------|
D|---2-2-2---2-2-2-------------------|
A|-------------------2-2-3-3-3-3-3---|
E|-----------------------------------|

E|-----------------------------------|
B|-----------------------------------|
G|-----------------------------------|
D|---2-2-2---2-2-2-------------------|
A|-------------------2-2-2---2-2-2---|
E|-----------------------------------|

Chorus

Trumpet Solo

E|-----------------------------------|
B|-----------------------------------|
G|-----------------------------------|
D|-------------------2-2-2---2-2-2---| x 4
A|---2-2-2---2-2-2-------------------|
E|-----------------------------------|

Verse 3 (Same as Verse 2)

Chorus


That's all of it.
See ya! 
:: Ultimate Guitar Archive :: 
http://www.ultimate-guitar.com    

Added On December 4th, 2013

SHARE

Comments

blog comments powered by Disqus

VERSIONS

ADVERTISEMENT