Atreyu Tabs

Falling Down

6 versions

TAB

            this is the song "falling down" by atreyu, from the new album. im 100% sure that this is 
right tab, with a few exceptions in the solo.

Song: Falling Down
Artist: Atreyu
Album: Lead Sails Paper Anchor

Tuning: Drop C (C G C F A D)


intro:

|------------------|
|------------------|
|------------------|
|-x-xxx-xxx-xxxx---|
|-x-xxx-xxx-xxxx---|
|-x-xxx-xxx-xxxx---|  x2
|
|--------------------|
|--------------------|
|--------------------|
|--------------------|
|--------------------|
|--7-777-777-77710---|   x2 (and thats a ten, not one and zero)
pm|.............|

verse 1
|--------------------|
|--------------------|
|--------------------|
|--------------------|
|--7-777-777-77710---|
|--7-777-777-77710---| x3
pm|.............|
|
|---------------------------|
|---------------------------|
|---------------------------|
|-----------------5-7--5----|
|--7-777-777--5-7--------7--|
|--7-777-777----------------|
pm|.........|

repeat verse part once more and after the 5 7 5 7 part add:
|-----------------|
|-----------------|
|-----------------|
|-7-7-7-7-7-7-7-7-|
|-7-7-7-7-7-7-7-7-|
|-7-7-7-7-7-7-7-7-|

chorus 1
|---------------------------------------------|
|---------------------------------------------|
|-10-10-101010--------------------------------|
|-10-10-101010-10-10-101010-5-5-555-7-7-777---|
|-8--8--8-8-8--10-10-101010-5-5-555-7-7-777---|
|--------------10-10-101010-5-5-555-7-7-777---|
|
|------------------------------------------------|
|------------------------------------------------|
|-10-10-101010-----------------------------------|
|-10-10-101010-10-10-101010-5-5-555-7-7-777777---|
|-8--8--8-8-8--10-10-101010-5-5-555-7-7-777777---|
|--------------10-10-101010-5-5-555-7-7-777777---|
|                                    pm|......|
|
|---------------------------------------------|
|---------------------------------------------|
|-10-10-101010--------------------------------|
|-10-10-101010-10-10-101010-5-5-555-7-7-777---|
|-8--8--8-8-8--10-10-101010-5-5-555-7-7-777---|
|--------------10-10-101010-5-5-555-7-7-777---|
|
|------------------------------------------------|
|------------------------------------------------|
|-10-10-101010-----------------------------------|
|-10-10-101010-10-10-101010-5-5-555-7-7-777777---|
|-8--8--8-8-8--10-10-101010-5-5-555-7-7-777777---|
|--------------10-10-101010-5-5-555-7-7-777777---|
|                                    pm|......|

fill
|--------------------|
|--------------------|
|--------------------|
|--------------------|
|--------------------|
|--7-777-777-77710---|   x2
pm|.............|

verse 2
|--------------------|
|--------------------|
|--------------------|
|--------------------|
|--7-777-777-77710---|
|--7-777-777-77710---| x3
pm|.............|
|
|---------------------------|
|---------------------------|
|---------------------------|
|-----------------5-7--5----|
|--7-777-777--5-7--------7--|
|--7-777-777----------------|
pm|.........|

|--------------------|
|--------------------|
|--------------------|
|--------------------|
|--------------------|
|--7-777-777-77710---|
pm|.............|

|---------------------|
|---------------------|
|---------------------|
|---------------10-10-|
|---------------10-10-|
|--7-777-777-77710-10-|
pm|.............|

|-------------------|
|-------------------|
|-------------------|
|---------------10\-|
|---------------10\-|
|--7-777-777-77710\-|
pm|.............|

|---------------|
|---------------|
|---------------|
|-----5-7--5----|
|-5-7--------7--|
|---------------|

|--------------------------|
|--------------------------|
|--------------------------|
|-7-7-7-7-7-7-7-7-7-7-7-7--|
|-7-7-7-7-7-7-7-7-7-7-7-7--|
|-7-7-7-7-7-7-7-7-7-7-7-7--|

chorus 2
|---------------------------------------------|
|---------------------------------------------|
|-10-10-101010--------------------------------|
|-10-10-101010-10-10-101010-5-5-555-7-7-777---|
|-8--8--8-8-8--10-10-101010-5-5-555-7-7-777---|
|--------------10-10-101010-5-5-555-7-7-777---|
|
|------------------------------------------------|
|------------------------------------------------|
|-10-10-101010-----------------------------------|
|-10-10-101010-10-10-101010-5-5-555-7-7-777777---|
|-8--8--8-8-8--10-10-101010-5-5-555-7-7-777777---|
|--------------10-10-101010-5-5-555-7-7-777777---|
|                                    pm|......|
|
|---------------------------------------------|
|---------------------------------------------|
|-10-10-101010--------------------------------|
|-10-10-101010-10-10-101010-5-5-555-7-7-777---|
|-8--8--8-8-8--10-10-101010-5-5-555-7-7-777---|
|--------------10-10-101010-5-5-555-7-7-777---|
|
|------------------------------------------------|
|------------------------------------------------|
|-10-10-101010-----------------------------------|
|-10-10-101010-10-10-101010-5-5-555-7-7-777777---|
|-8--8--8-8-8--10-10-101010-5-5-555-7-7-777777---|
|--------------10-10-101010-5-5-555-7-7-777777---|
|                                    pm|......|
|
|---------------------------------------------|
|---------------------------------------------|
|-10-10-101010--------------------------------|
|-10-10-101010-10-10-101010-5-5-555-7-7-777---|
|-8--8--8-8-8--10-10-101010-5-5-555-7-7-777---|
|--------------10-10-101010-5-5-555-7-7-777---|
|
|------------------------------------------------|
|------------------------------------------------|
|-10-10-101010-----------------------------------|
|-10-10-101010-10-10-101010-5-5-555-7-7-777777---|
|-8--8--8-8-8--10-10-101010-5-5-555-7-7-777777---|
|--------------10-10-101010-5-5-555-7-7-777777---|
|                                    pm|......|
|
|--------------------------|
|--------------------------|
|-10-10-10-10-10-10-10-10--|
|-10-10-10-10-10-10-10-10--|
|-8--8--8--8--8--8--8--8---|
|--------------------------|

breakdown
|-------------------|
|-------------------|
|-------------------|
|-77--77-------7-10-|
|-77--77---7-10-----|
|-77--77------------| x3
|
|---------|
|---------|
|---------|
|-777-7~--|
|-777-7~--|
|-777-7~--|
 pm|.|

solo
|------------------20-19-17----------17-20-17~-|
|-------15~-171815~---------20-19-20-----------|
|-7b~------------------------------------------|
|----------------------------------------------|
|----------------------------------------------|
|----------------------------------------------|
|
|---------------------------------|
|---------------------------------|
|-12-10h12p10-9-9h10p9-7*-7h9p7-5-|
|---------------------------------|
|---------------------------------|
|---------------------------------|
|
|-15p13p12-16p14p13-17p15p14-18p16p15-20-19-17-18--|
|--------------------------------------------------|
|--------------------------------------------------|
|--------------------------------------------------|
|--------------------------------------------------|
|--------------------------------------------------|
|
|-17b~----------------------------------------------------|
|------13b~-----------------------------------------------|
|-----------127h9127h9127h9147h9147h9147h9137h9137h9137h9-|
|---------------------------------------------------------|
|---------------------------------------------------------|
|---------------------------------------------------------|
those are twelves, then seven hammer 9 and so on
|
|-17-171717-171717-17171720-|
----------------------------|
|---------------------------|
|---------------------------|
|---------------------------|
|---------------------------| x2
|
|-17(x16)-20(x16)-|
|-----------------|
|-----------------|
|-----------------|
|-----------------|
|-----------------|

chorus 2

outro
|---------------------|
|---------------------|
|---------------------|
|-77--77-------7-10---|
|-77--77--7-10--------|
|-77--77--------------| x2
|
|----|
|----|
|----|
|-77-|
|-77-|
|-77-|


-END-    

Added On December 16th, 2013

SHARE

Comments

blog comments powered by Disqus