Avenged Sevenfold Tabs

Afterlife Solo

3 versions

TAB

            -------------------------------------------------------------------------------
			     "Afterlife" solo --- Avenged Sevenfold
-------------------------------------------------------------------------------

Tabbed by: [travis]

Tuning: Drop D: D A D G B E (low to high)

This song is in the key of "F Major."

This solo hast 64th notes, and 16th notes all around,
which is what makes this solo hard.


Legend:
h = hammer on
p = pull off
V = wammy bar
-1 = push wammy bar down 1 step
-S = push wammy bar to slack
b = bend
1 = full step bend
.5 = half step bend
__ = hold bend
/ = slide up
\ = slide down
hph = pick the phrase once
~ = vibrato
... = palm mute
() = note barely heard, or bring bent note back to normal



e|----------------------------------------------------------------------------|
B|----------5h6h8p6p5---5h6h8h/15~~~~~(15)\---------5h6h8p6p5---5h6h8h\17~~~~-|
G|------5-7-----------7-------------------------5-7-----------7---------------|
D|----------------------------------------------------------------------------|
A|-5-8--------------------------------------5-8-------------------------------|
D|----------------------------------------------------------------------------|
   ...                                      ...


e|----------------------------------------|
B|---------5h8p6p5---5h6h8h/20~~~~~(20)\--|
G|-----5-7---------7----------------------|
D|----------------------------------------|
A|-5-8------------------------------------|
D|----------------------------------------|
   ...

Really Fast:
e|-/13p\8p6--(6)h8p6p5---------------------------------------------------|
B|---------------------8p5/-13p10h11h13----------------------------------|
G|--------------------------------------\7h9p7--10h/12p\9p7----------6h7-|
D|----------------------------------------------------------11p9p7h8-----|
A|-----------------------------------------------------------------------|
D|-----------------------------------------------------------------------|

Intro Lick:
e|--------------------------------------------------------------------------|
B|-10p\8-10--10h/17~~(17)\-10-8--10-8-10-(10)/18~~~~(18)\10-8-10-(10)/20~~~-|
G|--------------------------------------------------------------------------|
D|--------------------------------------------------------------------------|
A|--------------------------------------------------------------------------|
D|--------------------------------------------------------------------------|

Intro Lick Continued:
         1         .5
e|------------------------------------|
B|-18--20b---20---22b~~~~~~~~~~(22)\--|
G|------------------------------------|
D|------------------------------------|
A|------------------------------------|
D|------------------------------------|


Really Fast:
e|-17-16-15-13-15-16-17-16-15-13-15-16-15-13----------------------13-16-17~~~(17)\-|
B|-------------------------------------------15----------------15------------------|
G|----------------------------------------------14-14-------14---------------------|
D|----------------------------------------------------12h15------------------------|
A|---------------------------------------------------------------------------------|
D|---------------------------------------------------------------------------------|

Really Fast:
e|-13p\12-10--12-13-12-10-------13-10-------------------------10-12h13-(13)\-|
B|------------------------11-11-------11-------------------11----------------|
G|------------------------------------------10----------10-------------------|
D|---------------------------------------12----12----12----------------------|
A|------------------------------------------------13-------------------------|
D|---------------------------------------------------------------------------|

Really Fast:
e|-18-17-16-15-16-17-18-17-16-16-------------------------------------18~~~~~(18)\-|
B|-------------------------------18p16p15-19-19-------------------15--------------|
G|-------------------------------------------------------------15-----------------|
D|----------------------------------------------19-19-------16--------------------|
A|----------------------------------------------------13/17-----------------------|
D|--------------------------------------------------------------------------------|

Really Fast:
e|-18-17-15----15-17-18-17-15-------------------------18h/23\--------------------------16-17-22~~|
B|----------18----------------18-------------------18---------18-17---------------17h18----------|
G|-------------------------------15-------------15------------------15-------18h19---------------|
D|----------------------------------15-------15------------------------14h/19--------------------|
A|-------------------------------------17-17-----------------------------------------------------|
D|-----------------------------------------------------------------------------------------------|

Really Fast:
e|----------------------15-----------------------------15--------------------|
B|-15h18p15p13h15p13h15---15-15p13h15-18-15-(15)p13h15----15p13--18-15-13h15-|
G|---------------------------------------------------------------------------|
D|--------------------------------------------------------------0------------|
A|---------------------------------------------------------------------------|
D|---------------------------------------------------------------------------|

Really Fast:
e|-15-----------------------------15-----------------------15------------------15---------------|
B|---15p13-18p15h18p15-18-15-13h15--15-13h15p13h15-18p15-15---15p13h15-18p15-15--15p13h15-18p15-|
G|----------------------------------------------------------------------------------------------|
D|----------------------------------------------------------------------------------------------|
A|----------------------------------------------------------------------------------------------|
D|----------------------------------------------------------------------------------------------|

Really Fast:
e|-13h15p13p12-17-13-13p12h13h15p13-13h17p13-12h13h15p13---17p13p12h13h15p13-|
B|---------------------------------------------------------------------------|
G|---------------------------------------------------------------------------|
D|---------------------------------------------------------------------------|
A|---------------------------------------------------------------------------|
D|---------------------------------------------------------------------------|

Really Fast:
e|-18-17-15---------17p15p13h17-------------------------------------------------------|
B|---------18-16-14-------------15-14-13------12-14-12----------14--------------------|
G|--------------------------------------15--12--------12------------------------14-15-|
D|----------------------------------------15------------15-14-15--15-14-15-12-15------|
A|------------------------------------------------------------------------------------|
D|------------------------------------------------------------------------------------|


For the 18v -1 part, push the wammy bar down a whole step,
and pick the 18th fret and bring the wammy bar back to
normal. For the slack part, just push the wammy bar
all the way down.

     1_______________      -1           -S
e|------------------------18v--------(18)v--|
B|------------------------------------------|
G|-17b~~~~~~~~~~~~~~~(17)-------------------|
D|------------------------------------------|
A|------------------------------------------|
D|------------------------------------------|


Please Rate and Comment This Tab
[travis]    

Added On December 16th, 2013

SHARE

Comments

blog comments powered by Disqus

VERSIONS

ADVERTISEMENT