Avril Lavigne Tabs

Best Damn Thing

3 versions

TAB

            Avril lavigne - The best damn thing

tabbed by: Avrill
avrill_xx@yahoo.com

Verse (only bass)
Pre-chorus (only bass)

Chorus
That you're not not not...
e|----------------------------------|
B|----------------------------------|
G|--777777777777--------------------|
D|--777777777777---55555555555555---|
A|--555555555555---55555555555555---|
E|-----------------33333333333333---|

Like it or not...
e|--22222222222222--00-----------------------|
B|--33333333333333--33--------------33-------|
G|--22222222222222--22--------------22-------|
D|--44444444444444--22--5555555555--00--555--|
A|--22222222222222--00--5555555555--00--555--|
E|----------------------3333333333--22--333--|

And yeah yeah yeah...
e|---------------------------------222222222222--|
B|---------------------------------333333333333--|
G|--777777777777-------------------222222222222--|
D|--777777777777---55555555555555--444444444444--|
A|--555555555555---55555555555555--222222222222--|
E|-----------------33333333333333----------------|

I'm the best damn thing that your eyes have ever seen!
e|---------------------|
B|---------------------|
G|---------------------|
D|-----5--5--5--5-7----|
A|-----5--5--5--5-7----|
E|-----3--3--3--3-5----|

Interlude
alright alright
e|--------------|
B|--------------|
G|--7-----------|
D|--7----3-4-5--|
A|--5----5-6-7--|
E|--------------|

Verse
Pre-chorus
Chorus

Bridge
Give me an A!
e|--------------|
B|--------------|
G|--------------|
D|--5-6-7\------|
A|--3-4-5\------|
E|--------------| 
repeat 5 times - listen to the song for the exact timing

Pre-chorus
e|---------2-----------0---|
B|---------3--2--------2---|
G|--4------2--2--4-----2---|
D|--4--5---0--2--4--5--2---|
A|--2--5------4--2--5--0---|
E|-----3------------3------|

Chorus
That you're not not not...
e|----------------------------------|
B|----------------------------------|
G|--777777777777--------------------|
D|--777777777777---55555555555555---|
A|--555555555555---55555555555555---|
E|-----------------33333333333333---|

Like it or not...
e|--22222222222222--00-----------------------|
B|--33333333333333--33--------------33-------|
G|--22222222222222--22--------------22-------|
D|--44444444444444--22--5555555555--00--555--|
A|--22222222222222--00--5555555555--00--555--|
E|----------------------3333333333--22--333--|

And yeah yeah yeah...
e|---------------------------------222222222222--|
B|---------------------------------333333333333--|
G|--777777777777-------------------222222222222--|
D|--777777777777---55555555555555--444444444444--|
A|--555555555555---55555555555555--222222222222--|
E|-----------------33333333333333----------------|

I'm the best damn thing that your eyes have ever seen!
e|-----------------|
B|--------------|
G|---------------|
D|--555555-7----|
A|--555555-7----|
E|--333333-5----|

Outro
Let me hear you say...
e|--------------|
B|--------------|
G|--------------|
D|--5-6-7\------| x2(I'm not sure)
A|--3-4-5\------|
E|--------------| 

Hey, hey, hey!...
e|-------------------------------------------|
B|-------------------------------------------|
G|--777777777777777777777777777777777777777--|
D|--777777777777777777777777777777777777777--|
A|--555555555555555555555555555555555555555--|
E|-------------------------------------------|

I'm the best damn thing that your eyes have ever seen!
e|---------------------------|
B|---------------------------|
G|----------------------5----|
D|--55555555--77777777--5----|
A|--55555555--77777777--3----|
E|--33333333--55555555-------|

have fun! :)    

Added On December 16th, 2013

SHARE

Comments

blog comments powered by Disqus

VERSIONS

ADVERTISEMENT