Berzerker Tabs

Y

1 versions

TAB

            -------------------------------------------------------------------------------
			     Y - The Berzerker
-------------------------------------------------------------------------------
Tabbed by: Laab
Email: sunsalt13@hotmail.com

Hey. This is my first ever tabbed song.  Hope you like.

Tuning: Drop D

Intro

e|------------------------------------------------|----------------------------|
B|------------------------------------------------|----------------------------|
G|------------------------------------------------|----------------------------|
D|------------------------------------------------|----------------------------|
A|--------------1---------------------------------|--3--1--0-----1--0----------|
D|000000000000-----3----000000000000-----3-----1--|-----------3--------3--1----|

-|xxxxxxxxxxxx          xxxxxxxxxxxx

e|-----------------------------------------------------------------------------|
B|-----------------------------------------------------------------------------|
G|-----------------------------------------------------------------------------|
D|-----------------------------------------------------------------------------|
A|--------------------3--1--0-----1--0--------------0--1-----------------------|
D|000000000000--3--1-----------3--------3--1--1--3--------3--1--00--1----------|

-|xxxxxxxxxxxx                                                  xx

Verse

e|----------------------------------|------------------------------------------|
B|----------------------------------|------------------------------------------|
G|----------------------------------|------------------------------------------|
D|----------------------------------|------------------------------------------|
A|-------------------1--------------|------------------1--------------1--0-----|
D|0---1--3--1--0--3------3--1--0--1-|5----00--5----00-------00--5--3-----------|

-|                                        xx       xx       xx

Pre-Chorus

e|-------------------------------------------------------|---------------------|
B|-------------------------------------------------------|---------------------|
G|-------------------------------------------------------|---------------------|
D|-------------------------------------------------------|---------------------|
A|0--00--0--00--0--00--0--00--0--00--0--00--0--00--0--1--|0--1--0--1-----------|
D|0--00--0--00--0--00--0--00--0--00--0--00--0--00--0--1--|0--1--0--1-----------|

-|1  xx  2  xx  3  xx  4  xx  5  xx  6  xx  7  xx  8      7     8

Chorus

e|-----------------------------------------------------------------------------|
B|-----------------------------------------------------------------------------|
G|-----------------------------------------------------------------------------|
D|-----------------------------------------------------------------------------|
A|---5--3--1--0--1--3----1--0-----0------5--3--1--0--1--3----1--0--------------|
D|0----------------------------5------0----------------------------3--1--------|

-|x                                   x

Verse 2

e|---------------------------------------------------------------------------|
B|---------------------------------------------------------------------------|
G|---------------------------------------------------------------------------|
D|---------------------------------------------------------------------------|
A|-----------------------------6--5--6--9----6--5--6--9--0-------------------|
D|2--1--2--5----2--1--2--5-------------------------------0-------------------|

The rest is repeated. Thanks.

| /  slide up
| \  slide down
| h  hammer-on
| p  pull-off
| ~  vibrato
| +  harmonic
| x  Mute note
===============================================================================    

Added On December 16th, 2013

SHARE

Comments

blog comments powered by Disqus

ADVERTISEMENT