Bethany Joy Lenz Tabs

Halo

3 versions

TAB

            Well, it's at a lower key than Bethany Joy's but it still works well. And it's only the 
verse. I'll figure out the rest and post it when I'm done. Hope you enjoy it!

E----------------------------------------------------------------------------|
B--0-0-1-0----------0-0-1-0-----3-0---0-0-0---1-0----------------------------|
G---2-----2-0-----0--2------2-0-----2-------2-----2-0-----0-0------0---------|
D-------------4-2--------------------------------------4-2----4-4-2----------|
A----------------------------------------------------------------------------|
E----------------------------------------------------------------------------|

E----------------------------------------------------------------------------|
B--0-0-1-0----------0-0-1-0-----3-0---0-0-0---1-0----------------------------|
G---2-----2-0-----0--2------2-0-----2-------2-----2-0-----0-0------0-2-------|
D-------------4-2--------------------------------------4-2----4-4-2----------|
A----------------------------------------------------------------------------|
E----------------------------------------------------------------------------|    

Added On December 16th, 2013

SHARE

Comments

blog comments powered by Disqus

VERSIONS

ADVERTISEMENT