Better Than Ezra Tabs

I Do

1 versions

TAB

            I Do Tab by Better Than Ezra


Song:		I Do
Artist:		Better Than Ezra
Tuning:	        Standard
Tabbed By:	Jeff Martin

Opening Chords: Guitar 1
Listen for the rhythm and repeat 4X
C   G   F   G  (Use power chords)

Opening:  Guitar 2

(0:09) Repeat again at 0:14
|------------|
|------------|
|------------|
|------------|
|--3-2-0-----|
|---------3--|

This riff is played in the back round by either a 3rd Guitar or Guitar 2… I dunno)

0:10
|----------13p12--------------12------------|
|------13--------------13-15-----15-13------|
|--12---------------12----------------------|
|-------------------------------------------|
|-------------------------------------------|
|-------------------------------------------|


Verse:  Play these 4 riffs in fast progression, and then repeat all 4 riffs in order again!

|----------13p12---------------|
|------13--------------13------|
|--12--------------12----------|
|------------------------------|
|------------------------------|
|------------------------------|

|----------13p12------15—13p12h13p12----------|
|------13----------13-----------------13------|
|--12-----------------------------------------|
|---------------------------------------------|
|---------------------------------------------|
|---------------------------------------------|

|----------13p12--------------12--------------|
|------13--------------13-15-----15-13--------|
|--12---------------12------------------------|
|---------------------------------------------|
|---------------------------------------------|
|---------------------------------------------|

|----------13p12------15—13p12h13p12----------|
|------13----------13------------------13-----|
|--12-----------------------------------------|
|---------------------------------------------|
|---------------------------------------------|
|---------------------------------------------|

Pre-Chorus:
(Repeat 2X)
|----------3------------|
|--------1--------------|
|------0------------0---|
|----2------------0-----|
|--3------------2-------|
|--------------3--------|

Pre-Chorus Part 2
(End on the following Power Chord Progression)
CC FFFFF slide up to GGG

Chorus:

Same as opening for all guitars.

Verse 2

Same as Verse 1

Pre-Chorus and Chorus are the same as above!

Bridge:
Guitar 1
Repeat this a lot (listen for timing)

|-------2-------|
|------(2)------|
|----4----------|
|--4------------|
|---------------|
|---------------|

Guitar 2:

|--------------------------------------------------------------------|
|--------------------------------------------------------------------|
|--------------------------------------------------------------------|
|------5-7-----------------------------------------0-0-0-0-XXXXX-----|
|--2h3-----8-7-5-7-8-7-5-3-2-0h2p0--0-8-3--0-8---2-2-2-2-XXXXX-------|
|-----------------------------------3------3----3--3-3-3-3-XXXXX-----|

From here, just follow the chorus riffs and listen for when they come in.

Enjoy, and please let me know about corrections!

Peace    

Added On December 4th, 2013

SHARE

Comments

blog comments powered by Disqus

ADVERTISEMENT