Black Sabbath Tabs

Hand Of Doom

7 versions

TAB

            Hand Of Doom Tab by Black Sabbath


Black Sabbath
Hand of Doom

Whole Song minus the solo

“Whatchya gonna do? Times caught up with you”

(Intro/Verse )
Bass plays- 2x and then guitar joins in
E----------------------------------------------------------------------------------------|
B----------------------------------------------------------------------------------------|
G----------------------------------------------------------------------------------------|
D----------------------------------------------------------------------------------------|
A----3-----5--5--5--5--5----------------------3-3----5—5--5—5--5-------------------------|
E----------------------------------3--4--5--------------------------------------3--4--5--|

Begin Chorus after “You know there’s no return”

Chorus
Play this 5? times Then go back to the intro

E----------------------------------------------------------------------------------------|
B----------------------------------------------------------------------------------------|
G----------------------------------------------------------------------------------------|
D----------------------------5---5-----7--7---7---7---7----------------------------------|
A-----5-----6----7---------3---3-----5--5---5---5---5------------------------------------|
E-----3-----4----5-----------------------------------------------------------------------|

Then repeat verse and chorus one more time


And this is where the song speeds up.
Then play this (Rythym Figure #1)

E-------------------------------------------------------------------|
B-------------------------------------------------------------------|
G--------5-------5-------5------5------5----8---7----3--------------|
D-----5-------5-------5------5---------5----8---7----3--------------|
A--3-------3-------3------3------------3----6---5----1--------------|
E-------------------------------------------------------------------|

Play this 4 times and then figure out the rythym with these chords


Rhythm Figure #2
E--------------------------------------|
B--------------------------------------|
G--------5-----8----7------3-----------|
D--------5-----8----7------3-----------|
A--------3-----6----5------1-----------|
E--------------------------------------|

Repeat figures number 1 and 2


Then Rythym Figure#3
E------------------------------|
B -----------------------------|
G -----------------------------|
D ----------3---------6--------|
A-----------3---------6--------|
E ----------5---------4--------|

Then play around with this palm-muting it.


Then rythm figure#1 One more time.
Then it’s the solo which I am not sure of…and then It goes back to repeating
the verse to chorus

Sorry if its hard to understand    

Added On December 4th, 2013

SHARE

Comments

blog comments powered by Disqus