Bloc Party Tabs

Uniform

2 versions

TAB

            Uniform Tab by Bloc Party


-------------------------------------------------------------------------------
			     Uniform - Bloc Party
-------------------------------------------------------------------------------



This tab is based on the live performance on Channel 4 so the album version may differ slightly.

Tuning: Standard (EADGBe)

Intro/ First Verse

(Russel)
Uses an e-bow. I think these are the notes but I don't have an e-bow to test it.
You could tremelo pick these with plenty of reverb to get a similar result.

e|---------------------------------------------------------------------------|
B|---------------------------------------------------------------------------|
G|---------------------------------------------------------------------------|
D|-(17)---------(17)^(19)------(17)------------------(15)---(14)-------------|
A|---------------------------------------------------------------------------|
E|---------------------------------------------------------------------------|


(Kele)
e|-------------------------------------|
B|-----5--------5--------5--------5----|
G|-------5--------5--------5--------5--|
D|-7-7---------------------------------|
A|----------5-5------8-8------8-8------|
E|-------------------------------------|

Verse variation:
e|-------------------------------------|
B|-----5--------5--------5----6--5-----|
G|-------5--------5--------5-------5---|
D|-7-7---------------3-3---------------|
A|----------5-5------------------------|
E|-------------------------------------|





Chorus ("'Cause we're so handsome..")

(Russel)
e|---------------------------------------8---|
B|-10--8-----10--8-----10--8-----10--8-------|
G|--------9---------9---------9--------------|
D|-------------------------------------------|
A|-------------------------------------------|
E|-------------------------------------------|

                                 ("Make it long..")
e|-------------------------------------------|
B|-10--8-----10--8-----10--8-----15--17-(17)-|
G|--------9---------9---------9--------------|
D|-------------------------------------------|
A|-------------------------------------------|
E|-------------------------------------------|

e|-------------------------------------------|
B|-20--------20--------20--------18--20-(17)-|
G|----16-17-----16-17-----16-17--------------|
D|-------------------------------------------|
A|-------------------------------------------|
E|-------------------------------------------|

                            ("Make me laugh/ We can't be hurt")
e|-------------------------------------------|
B|-20--------20--------20--------20--22-(22)-|
G|----16-17-----16-17-----16-17--------------|
D|-------------------------------------------|
A|-------------------------------------------|
E|-------------------------------------------|

Last Time:
  ("..We can't be hurt.")
e|-------------------------------------------|
B|-20--------20--------20--------15--17\-----|
G|----16-17-----16-17-----16-17--------------|
D|-------------------------------------------|
A|-------------------------------------------|
E|-------------------------------------------|


I have no idea what chords Kele plays in the chorus.





Second Verse

(Russel)
Pick these notes continuously. I'm not sure how many times each is picked.
Listen carefully and you'll work it out.


                           ("..More things to buy.")
e|---------------------------------------------------------------------|
B|---------------------------------------------------------------------|
G|---------------------------------------------------------------------|
D|--7------9------10--------12------9------10--------------------------|
A|---------------------------------------------------------------------|
E|---------------------------------------------------------------------|

                      ("..Love nothing.."    ("..Hair long..")
e|---------------------------------------------------------------------|
B|---------------------------------------------------------------------|
G|---------------------------------------------------------------------|
D|---------------------------------------------------------------------|
A|-7-------9------10----12------14-----15-----17-----10-----12-----9---|
E|---------------------------------------------------------------------|

Kele plays the same as in the first verse.





Second Chorus: Same as first chorus.





Breakdown:

(Russel)
   ("..Fights that you'll lose?")
e|--------------------------------------------------------------------------|
B|--------------------------------------------------------------------------|
G|------------------------------10----9----10----9----9----7----9----7------|
D|---------------------------------10---10----10---10---10---10---10---10---|
A|--------------------------------------------------------------------------|
E|--------------------------------------------------------------------------|

("..Thoughts that are above you?")
e|---------------------------------------------------------------------------|
B|------------------------------12----10----12----10----9----7----9----7-----|
G|---------------------------------10----10----10----12---10---10---10---10--|
D|---------------------------------------------------------------------------|
A|---------------------------------------------------------------------------|
E|---------------------------------------------------------------------------|

  ("Well I was brave..")       ("No-one can be trusted..")   ("..age of..")
    [Tremelo pick...........................................................>]
e|---------------------------------------------------------------------------|
B|---------------------------------------------------------------------------|
G|--/14-------------------------14/21--------------------------------21\-----|
D|---------------------------------------------------------------------------|
A|---------------------------------------------------------------------------|
E|---------------------------------------------------------------------------|

  ("We tell ourselves..")                               ("..Lying to myself.")
    [Tremelo pick...........................................................>]
e|---------------------------------------------------------------------------|
B|---13-------------------------13/20----------------------------------------|
G|---------------------------------------------------------------------------|
D|---------------------------------------------------------------------------|
A|---------------------------------------------------------------------------|
E|---------------------------------------------------------------------------|


  ("Oh!")
e|---------|
B|---------|
G|-6\------|
D|-7\------|
A|-7\------|
E|-5\------|


 ("Oh!   Oh!   Oh!")
e|-------------------|
B|-10----12----13----|
G|-13^---15^---16^---|
D|-------------------|
A|-------------------|
E|-------------------|

  ("So when're you going.............Wrongs to right?")
e|-----------------------------------------------------|
B|-8--8--8--8--8--8--8--8--8--8--8--8--8--8--8--8------|
G|-----------------------------------------------------|
D|-----------------------------------------------------|
A|-----------------------------------------------------|
E|-----------------------------------------------------|

  ("Have another life..........Have another drink.")
e|-----------------------------------------------------|
B|-5--5--5--5--6--6--6--6--8--8--8--8--10-10-12-12-----|
G|-------------------------------------------15^15^----|
D|-----------------------------------------------------|
A|-----------------------------------------------------|
E|-----------------------------------------------------|


Not sure about this bit
e|-----------------------------------------------------|
B|-----------------------------------------------------|
G|-10-10--9-9--7-7--5-5-5-4h5-5---10-10--9-9--7--------|
D|-----------------------------------------------------|
A|-----------------------------------------------------|
E|-----------------------------------------------------|


I don't have much of a clue what he's playing between
"I'm a martyr.." to "We have nothing at all to say".


Solo:
If you hit the muted G string while playing the high section on D
it sounds a bit more like Russel plays it (I think)

e|---------------3-------------------------------------------------|
B|-------------3---6-5---5\----------------------------------------|
G|-4-4-4-4-4-5---------7~------------------------------------------|
D|-------------------------------5-3-2/12--14-12-10-12-10-12^-10---|
A|-----------------------------------------------------------------|
E|-----------------------------------------------------------------|

e|--------------------------------------------------------------------|
B|--------------------------------------------------------------------|
G|-----------------------------------------------17----17----19----17-|
D|-14-15-14-12-10-12-12/14-14-12-12-10-12----/17----17----17----17----|
A|--------------------------------------------------------------------|
E|--------------------------------------------------------------------|

e|----------------------------------------------------------------------|
B|-20------18---------------------------20-20-20--------------17-18-----|
G|----17------15\--------------------------------17--17-17-19-------17/-|
D|---------------------17^^^^----------------------------------|
A|----------------------------------------------------------------------|
E|----------------------------------------------------------------------|


(Kele)
Plays nothing until:

  ("Oh!")
e|---------|
B|---------|
G|-6\------|
D|-7\------|
A|-7\------|
E|-5\------|

 ("Oh! Oh! Oh!")
e|-------------|
B|-------------|
G|-2---2---2\--|
D|-3---3---3\--|
A|-3---3---3\--|
E|-1---1---1\--

   ("So when're you..                                  ..Have another drink.")
    [Tremelo Pick...........................................................>]
e|---------------------------------------------------------------------------|
B|---------------------------------------------------------------------------|
G|---------------------------------------------------------------------------|
D|---------------------------------------------------------------------------|
A|---------------------------------------------------------------------------|
E|--5-------7-------8-------10-------12-------13-------15-------17------17\--|


e|-------------------------------------------|
B|-------------------------------------------|
G|------5-5------------5-7-----------5-5-----|
D|-7-7--5-5--3-3--3-3--5-7------7-7--5-5--3--|
A|-7-7--3-3--3-3--3-3--3-5------7-7--3-3--3--|
E|-5-5-------1-1--1-1-----------5-5-------1--|


Again, I don't know what the chords are between
"I'm a martyr.." to "We have nothing at all to say".


Outro:

Same as intro/ verses.
Finish on A.






There you go!
Hopefully that's easy enough to follow.

Great song, great band.



| /  slide up
| \  slide down
| h  hammer-on
| p  pull-off
| ^  bend
| ~  vibrato
| +  harmonic
| x  Mute note
===============================================================================    

Added On December 4th, 2013

SHARE

Comments

blog comments powered by Disqus

VERSIONS

ADVERTISEMENT