Bouncing Souls Tabs

The Day I Turned My Back On You

1 versions

TAB

            Inro: srtum and ring out

E--3--3--3---3--2--3--3--3--0---3--2--3-33-333--3-33-333--|
B--3--3--3---3--3--3--3--3--0---3--3--3-33-333--3-33-333--|
G--0--0--0---0--2--0--0--0--0---0--2--0-00-000--0-00-000--|
D--0--2--0---2--0--0--2--0--2---2--0--0-00-000--0-00-000--|
A--2--3--2---3-----2--3--2--2---3-----2-22-222--2-22-222--|
E--3-----3---------3-----3--0---------3-33-333--3-33-333--|

Verse
E----------------------------------------------------------|
B----------------------------------------------------------|
G------------5-55-555--------------------5-55-555-5-55-555-|
D--5-55-555--5-55-555-5-55-555-5-55-555--5-55-555-5-55-555-|
A--5-55-555--3-33-333-5-55-555-5-55-555--3-33-333-3-33-333-|
E--3-33-333-----------3-33-333-3-33-333--------------------|

E----------------------------------------------------|
B----------------------------------------------------|
G-7-77-777-7-77-777----------5-55-555----------------|
D-7-77-777-7-77-777-5-55-555-5-55-555-5--5--2-22-222-|
A-5-55-555-5-55-555-5-55-555-3-33-333-5--5--2-22-222-|
E-------------------3-33-333----------3--2--0-00-000-|

Chorus
E-----------------------------------------------------------|
B-----------------------------------------------------------|
G--5-55-555--7-77-777--------------------5-55-555--7-77-777-|
D--5-55-555--7-77-777-5-55-555-5-55-555--5-55-555--7-77-777-|
A--3-33-333--5-55-555-5-55-555-5-55-555--3-33-333--5-55-555-|
E---------------------3-33-333-3-33-333---------------------|

E-------------------|
B-------------------|
G-------------------|
D-5-55-555-5-55-555-|
A-5-55-555-5-55-555-|
E-3-33-333-3-33-333-|

1st Solo:

E--------------------------------------------------------------------------|
B--------------------------------------------------------------------------|
G--------------------------------------------------------------------------|
D-5-5-5-4-2-0-------------------------------------5-4-2-0-2----------------|
A------------3-2-2-3-33-33-3-33-2-0-2-0--------------------2-3-33-3-20-----|
E---------------------------------------3-2-3-33-3--------------------3-23-|

Verse
E----------------------------------------------------------|
B----------------------------------------------------------|
G------------5-55-555--------------------5-55-555-5-55-555-|
D--5-55-555--5-55-555-5-55-555-5-55-555--5-55-555-5-55-555-|
A--5-55-555--3-33-333-5-55-555-5-55-555--3-33-333-3-33-333-|
E--3-33-333-----------3-33-333-3-33-333--------------------|

E----------------------------------------------------|
B----------------------------------------------------|
G-7-77-777-7-77-777----------5-55-555----------------|
D-7-77-777-7-77-777-5-55-555-5-55-555-5--5--2-22-222-|
A-5-55-555-5-55-555-5-55-555-3-33-333-5--5--2-22-222-|
E-------------------3-33-333----------3--2--0-00-000-|

Chorus
E-----------------------------------------------------------|
B-----------------------------------------------------------|
G--5-55-555--7-77-777--------------------5-55-555--7-77-777-|
D--5-55-555--7-77-777-5-55-555-5-55-555--5-55-555--7-77-777-|
A--3-33-333--5-55-555-5-55-555-5-55-555--3-33-333--5-55-555-|
E---------------------3-33-333-3-33-333---------------------|

E-------------------|
B-------------------|
G-------------------|
D-5-55-555-5-55-555-|
A-5-55-555-5-55-555-|
E-3-33-333-3-33-333-|

2nd Solo:
E--------------------------------------------------------------------------|
B----------------------------------------------7h8-8-7h8-8-7h8---7h8-8-7h8-|
G----------------------------------------------7---7-7---7-7-----7---7-7---|
D--5-5-5-4-2-0-------------------------------------------------------------|
A--------------3-2-2-3-33-33-3-33-2-0-2-0----------------------------------|
E-----------------------------------------3-2------------------------------|

E---------------------------------------------------|
B--8-888--7---5-55-5555----88888888--10------8------|
G--7-777--7---4-44-4444----77777777--9--x8---7-x16--|
D---------------------------------------------------|
A---------------------------------------------------|
E---------------------------------------------------|

Verse
E----------------------------------------------------------|
B----------------------------------------------------------|
G------------5-55-555--------------------5-55-555-5-55-555-|
D--5-55-555--5-55-555-5-55-555-5-55-555--5-55-555-5-55-555-|
A--5-55-555--3-33-333-5-55-555-5-55-555--3-33-333-3-33-333-|
E--3-33-333-----------3-33-333-3-33-333--------------------|

E----------------------------------------------------|
B----------------------------------------------------|
G-7-77-777-7-77-777----------5-55-555----------------|
D-7-77-777-7-77-777-5-55-555-5-55-555-5--5--2-22-222-|
A-5-55-555-5-55-555-5-55-555-3-33-333-5--5--2-22-222-|
E-------------------3-33-333----------3--2--0-00-000-|

Chorus
E-----------------------------------------------------------|
B-----------------------------------------------------------|
G--5-55-555--7-77-777--------------------5-55-555--7-77-777-|
D--5-55-555--7-77-777-5-55-555-5-55-555--5-55-555--7-77-777-|
A--3-33-333--5-55-555-5-55-555-5-55-555--3-33-333--5-55-555-|
E---------------------3-33-333-3-33-333---------------------|

E-------------------|
B-------------------|
G-------------------|
D-5-55-555-5-55-555-|
A-5-55-555-5-55-555-|
E-3-33-333-3-33-333-|    

Added On December 16th, 2013

SHARE

Comments

blog comments powered by Disqus

ADVERTISEMENT