Boys Like Girls Tabs

Me You And My Medication

2 versions

TAB

            Boys Like Girls - Me, You and My Medication

Drop D

Very Easy To Play. Enjoy!

/ \ - Slide

Beginning

E|-----12(Bunch of Times)------|
B|-----------------------------|
G|-----------------------------|
D|-----------------------------|
A|-----------------------------|
D|-----------------------------|
0:12 - 0:58

Chorus

E|---------------------------------------------|
B|---------------------------------------------|
G|-----------2-222-222222-22-2-222-222222------|
D|-0000000---2-222-222222-22-2-222-222222------|
A|-0000000---0-000-000000-00-0-000-000000------|
D|-0000000-------------------------------------|
 |PM------|

E|---------------------------------------------|
B|---------------------------------------------|
G|--6/x\6--------------------------------------|
D|--x/x\x-0-000-000000-00-0-000-000000-00------|
A|--4/5\4-0-000-000000-00-0-000-000000-00------|
D|--------0-000-000000-00-0-000-000000-00------|

E|--------------------------------------|
B|--------------------------------------|
G|----2-222-222222-22-2-222-222222------|
D|----2-222-222222-22-2-222-222222------|
A|----0-000-000000-00-0-000-000000------|
D|--------------------------------------|

E|---------------------------------------------|
B|---------------------------------------------|
G|--6/7\6--------------------------------------|
D|--x/x\x-0-000-000000-00-0-000-000000-00------|
A|--4/5\4-0-000-000000-00-0-000-000000-00------|
D|--------0-000-000000-00-0-000-000000-00------|

E|------------------------------12-(Start This Again)--|
B|-----------------------------------------------------|
G|-222-------------------------------------------------|
D|-222-(x16)-----222---------0~------------------------|
A|-000-----------222-(x16)---0~------------------------|
D|---------------222---------0~------------------------|
0:58 - 2:03

E|---------------------------------------------|
B|---------------------------------------------|
G|---------------------------------------------|
D|-2------4-------0----------------------------| (x2)
A|-2-(x8)-4-(x8)--0-(x16)----------------------|
D|-2------4-------0----------------------------|
 |PM-------------------------------------------|
2:03 - 2:16

E|--------------------------------------|
B|--------------------------------------|
G|----2-222-222222-22-2-222-222222------|
D|----2-222-222222-22-2-222-222222------|
A|----0-000-000000-00-0-000-000000------|
D|--------------------------------------|

E|---------------------------------------------|
B|---------------------------------------------|
G|--6/7\6--------------------------------------|
D|--x/x\x-0-000-000000-00-0-000-000000-00------|
A|--4/5\4-0-000-000000-00-0-000-000000-00------|
D|--------0-000-000000-00-0-000-000000-00------|

E|--------------------------------------|
B|--------------------------------------|
G|----2-222-222222-22-2-222-222222------|
D|----2-222-222222-22-2-222-222222------|
A|----0-000-000000-00-0-000-000000------|
D|--------------------------------------|

E|---------------------------------------------|
B|---------------------------------------------|
G|--6/7\6--------------------------------------|
D|--x/x\x-0-000-000000-00-0-000-000000-00------|
A|--4/5\4-0-000-000000-00-0-000-000000-00------|
D|--------0-000-000000-00-0-000-000000-00------|

E|-----------------------------------------------------|
B|-----------------------------------------------------|
G|-222-------------------------------------------------|
D|-222-(x16)-----222---------000-----------------------|
A|-000-----------222-(x16)---000-(x32)-----------------|
D|---------------222---------000-----------------------|
2:16 - 2:53

Bridge

E|-------------------------------------------------------------------------|
B|-------------------------------------------------------------------------|
G|-2222-222-222-2222-6666-666-666-6666-9999-9999-999-9\2222-2222-222-9\0---|
D|-2222-222-222-2222-6666-666-666-6666-9999-9999-999-9\0000-0000-222-9\0---|
A|-0000-000-000-0000-4444-444-444-4444-7777-7777-777-7\0000-0000-000-7\0---|
D|-------------------------------------------------------------------------|
 |PM------------------------------------------------|  |------------|
2:53 - 3:05

E|-----------------------------------------------------------------|
B|-----------------------------------------------------------------|
G|-22222222222222-66666666666666-99999999-999-9\22222222-222-2-----|
D|-22222222222222-66666666666666-99999999-999-9\00000000-222-2-----|
A|-00000000000000-44444444444444-77777777-777-7\00000000-000-0-----|
D|-----------------------------------------------------------------|
                                         |PM-|          |PM-|
3:05 - 3:18

Post Bridge
                                                                     !
E|---0-----0--------0----0----0---0--0~---12-(Start This Again)------0~--|
B|--0-0---0-0------0----0-0--0-0-0-0-0~------------------------------0~--|
G|--------------1h2--1h2---------------------------------------------0~--|
D|-----------------------------------------------------------------------|
A|-----------------------------------------------------------------------|
D|-2----4-----0-------------2---4----------------------------------------|
3:18 - 3:33


E|--------------------------------------|
B|--------------------------------------|
G|----2-222-222222-22-2-222-222222------|
D|----2-222-222222-22-2-222-222222------|
A|----0-000-000000-00-0-000-000000------|
D|--------------------------------------|

E|---------------------------------------------|
B|---------------------------------------------|
G|--6/7\6--------------------------------------|
D|--x/x\x-0-000-000000-00-0-000-000000-00------|
A|--4/5\4-0-000-000000-00-0-000-000000-00------|
D|--------0-000-000000-00-0-000-000000-00------|

E|--------------------------------------|
B|--------------------------------------|
G|----2-222-222222-22-2-222-222222------|
D|----2-222-222222-22-2-222-222222------|
A|----0-000-000000-00-0-000-000000------|
D|--------------------------------------|

E|---------------------------------------------|
B|---------------------------------------------|
G|--6/7\6--------------------------------------|
D|--x/x\x-0-000-000000-00-0-000-000000-00------|
A|--4/5\4-0-000-000000-00-0-000-000000-00------|
D|--------0-000-000000-00-0-000-000000-00------|

E|---------------------------------------12-(Strum Until The End)----|
B|-------------------------------------------------------------------|
G|----222------------------------------------------------------------|
D|----222-(x16)-----222---------0~-----------------------------------|
A|----000-----------222-(x16)---0~-----------------------------------|
D|------------------222---------0~-----------------------------------|
3:33 - 4:30    

Added On December 16th, 2013

SHARE

Comments

blog comments powered by Disqus

VERSIONS

ADVERTISEMENT