Bring Me The Horizon Tabs

I Used To Make Out With Medusa

3 versions

TAB

            I Used To Make Out With Medusa Tab by Bring Me The Horizon


Artist: Bring Me The Horizon
Song:(I Used To Make Out With) Medusa
Album: Count Your Blessings
Tuning: Drop C

This isn't the WHOLE song but it's some what of it and,
I know this ain't correct but, it's give an idea of what it is.

Begginging

|-----------------------------|
|-----------------------------|
|-----------------------------|
|------7-5-3-----3h5------5p3-|
|--0-0-------0-0------0-0-----|
|--0-0-------0-0------0-0-----|

Dead hands clutch my arm..

|-------------------------------------------------------|
|-------------------------------------------------------|
|-------------------------------------------------------|
|------19-17-15-----15-----14-----19-17-15-----15-17-19-|
|--0-0----------0-0----0-0----0-0----------0-0----------|
|--0-0----------0-0----0-0----0-0----------0-0----------|

Since you left me
           ^_^_^_^_^_^
|----------------------|
|----------------------|
|----------------------|
|----------7-7-7-5-5-5-|
|--0-0-0-0-------------|
|--0-0-0-0-------------|

Solo

|--12h13--13\12--10\8--13-12-10-15-13-12-13-10-12-13-10-12-9-10-7-9-5-7-3-5-|
|---------------------------------------------------------------------------|
|---------------------------------------------------------------------------|
|---------------------------------------------------------------------------|
|---------------------------------------------------------------------------|
|---------------------------------------------------------------------------|

|--17p15--13-17p15--13-17p15--13-18p17--15-18p17--15-18p17--15p18--17-15p18--17-15-|
|----------------------------------------------------------------------------------|
|----------------------------------------------------------------------------------|
|----------------------------------------------------------------------------------|
|----------------------------------------------------------------------------------|
|----------------------------------------------------------------------------------|

--15p13--12-15p13--12-15p13--12-|
--------------------------------|
--------------------------------|
--------------------------------|
--------------------------------|
--------------------------------|

|--10--10-10-12-13-15-13-12-9-13-12-10-15-13-12----12-13-10-12-9-7-9-5-7-3-|
|--------------------------------------------------------------------------|
|--------------------------------------------------------------------------|
|--------------------------------------------------------------------------|
|--------------------------------------------------------------------------|
|--------------------------------------------------------------------------|

And that's for now. and I know this Tabs sucks donkey ass.    

Added On December 4th, 2013

SHARE

Comments

blog comments powered by Disqus

VERSIONS

ADVERTISEMENT