Buckethead Tabs

Interworld And The New Innocence

1 versions

TAB

            Interworld And The New Innocence Tab by Buckethead


This is a great song and I didn't see tabs for it so here it goes. This is a combination
the album song from praxis and the live version solo from the video on you tube. I hope
helps.

E-------------------------------------------------------------------|
B----------------------------------10--------10---------------------|
G-------------------------------------------------------------------|
D--------------11-11-11---12-12-12-------12-------12----------------|
A--------9-9-9------------------------------------------------------|
E--7-7-7------------------------------------------------------------|

E-------------------------------------------------------------------|
B-------------------------------------------------------------------|
G-------------------------------------------------------------------|
D--------------11-11-11---12-12-12---11------11---------------------|
A--------9-9-9--------------------------12------12------------------|
E--7-7-7------------------------------------------------------------|


E-------------------------------------------------------------------|
B-------------------------------------------------------------------|
G-------------------------------------------------------------------|
D---------------7-7-7---9-9-9---5-4----5-4--------------------------|
A--------5-5-5------------------------------------------------------|
E--3-3-3------------------------------------------------------------|

E-------------------------------------------------------------------|
B-------------------------------------------------------------------|
G-------------------------------------------------------------------|
D---------------7-7-7---9-9-9---5-4----5-4--------------------------|
A--------5-5-5------------------------------------------------------|
E--3-3-3------------------------------------------------------------|

This part repeats over and over for the beginning of the album version.


Here is my interpretation of the beginning of the improvised solo on the secret recipe
and you tube. It is late and I am tired so this is all I am doing so far. If you want
then email me and I might post the rest of it. It is pretty easy if you just watch the 
and listen to it a few times.
mission_weasel@yahoo.com

E-------------------------------------------------------------------|
B---7vvvvv------7--8-----------10vv----8p7---7vvv--8----------------|
G---------------------7------------------------------7vvvvvvvv------|
D--------------------------9----------------------------------------|
A-------------------------------------------------------------------|
E-------------------------------------------------------------------|

E-----------------------9--10---------------------------------------|
B--------10vvvvv---7------------10vvvv---12--10---7-7--8------------|
G---------------------------------------------------------7---------|
D---9---------------------------------------------------------------|
A-------------------------------------------------------------------|
E-------------------------------------------------------------------|    

Added On December 4th, 2013

SHARE

Comments

blog comments powered by Disqus

ADVERTISEMENT