Casualties Tabs

Down And Out

1 versions

TAB

            Down And Out Tab by Casualties


This tab was created by me (Carson) on 09/04/06.
Also, check out my Under Attack tab (ver 3 on Ultimate-Guitar.com).

  Am      C       D   G   Am
E|0-------0---------------0-------|
B|0-------1---------------0-------|
G|0-------0---------------0-------| (I don't know if the D and second G are
D|2-------2-------7-------2-------| played as chords, but they sound as if
A|2-------3-------5---5---2-------| they were recorded as power chords.)
E|--------------------3-----------|

E|-----------------------------|
B|-----------------------------|
G|-----------------------------|
D|-----------------------------|
A|---0---2-3-2---0---2---0-----|
E|1/5------------------------3-|

E|----------------------------------|
B|----------------------------------|
G|----------------------------------|
D|---0---2-3-2---0---2---0---2------|
A|1/5-------------------------------|
E|----------------------------------|

E|-----------------------------|
B|-----------------------------|
G|-----------------------------|
D|-----------------------------|
A|---0---2-3-2---0---2---0-----|
E|1/5------------------------3-|

E|-----------------------------|
B|-----------------------------|
G|-----------------------------|
D|3-2-0-2-0---0----------------|
A|----------3---3-2---0--------|
E|------------------3----------|

Verse (pretty straight forward)

Am  G    D G Am    X2

Am
I'll tell you a little a story
G
A Man roaming the streets
D                   G
The one with ragged clothes
Am
The one you ignore to see

Am
I'll tell you a little story
G
A man I used to know
D              G
Smelling oh so bad
Am
People laugh at him

Chorus
E|---------------------------------|
B|---------------------------------|
G|---------------------------------|
D|5-5-5555-------------------------|
A|3-3-33335-5-55557-7-77777-7-7777-|
E|--------3-3-33335-5-55555-5-5555-|

E|---------------------------------|
B|---------------------------------|
G|---------------------------------|
D|7-7-7777-------------------------|
A|5-5-55555-5-55557-7-77777-7-7777-|
E|--------3-3-33335-5-55555-5-5555-|

E|---------------------------------|
B|---------------------------------|
G|---------------------------------|
D|5-5-5555-------------------------|
A|3-3-33335-5-55557-7-77777-7-7777-|
E|--------3-3-33335-5-55555-5-5555-|

E|----------------------------------------------|
B|----------------------------------------------|
G|----------------------------------------------|
D|7-7-7777--------------------------------------|
A|5-5-55555-5-55557-7------7------7------7------|
E|--------3-3-33335-5------5------5------5------|

Verse
Chorus

Solo
E|-------------------------------------------------------|
B|-------------------------------------------------10/16-|
G|2-22224-5---4-2-4---2---0---1/7-77779-10--9-7-9~~~9/15-|
D|-------------------------------------------------------|
A|-------------------------------------------------------|
E|-------------------------------------------------------|

E|------------------------------------------|
B|17b-17b17b-17b-17b17b17b17b17p15----------|
G|--------------------------------17-14~~14-|
D|------------------------------------------|
A|------------------------------------------|
E|------------------------------------------|

E|------------------------------------------|
B|------------------------15b---------------|
G|---14-17-14----14-17-17----17-14~~~~~~~~~-|
D|17----------17----------------------------|
A|------------------------------------------|
E|------------------------------------------|

     - Second guitar (same as Verse)

Verse #3 (first half: just let solo ring,
	  second half: play Verse palm muted)
Chorus

Ending
E|-----------------------------|
B|-----------------------------|
G|-----------------------------|
D|-----------------------------|
A|---0---2-3-2---0---2---0-----|
E|1/5------------------------3-|

E|-----------------------------------------------------|
B|-----------------------------------------------------|
G|-----------------------------------------------------|
D|---0---2-3-2---0---2---0---2p1h2p1h2p1h2p1h2p1h2-----|
A|1/5--------------------------------------------------|
E|-----------------------------------------------------|

Am      C       D   G   Am    

Added On December 4th, 2013

SHARE

Comments

blog comments powered by Disqus

ADVERTISEMENT