Casualties Tabs

For The Punx

4 versions

TAB

            For The Punx Tab by Casualties


intro
---------------------------------------
---------------------------------------
-----------99999999----------777---777-
--77777777-99999999-55555555-777-7-777-
--77777777-77777777-55555555-555-7-555-
--55555555----------33333333-----5-----
pm........ ........ ........ ...   ...

---------------------------------------
---------------------------------------
-----------9-999999----------777-------
--7-777777-9-999999-5-555555-777-7-----
--7-777777-7-777777-5-555555-555-7-----
--5-555555----------3-333333-----5-----
pm  ......   ......   ......
verse
---------------------------------------
---------------------------------------6x
-----------99999999----------777-------
--77777777-99999999-55555555-777-7-----
--77777777-77777777-55555555-555-7-----
--55555555----------33333333-----5----- 
chorus
---------------------------------------
---------------------------------------4x
--5--7--10--9--------------------------
--5--7--10--9--------------------------
--3--5---8--7--------------------------
---------------------------------------    

Added On December 4th, 2013

SHARE

Comments

blog comments powered by Disqus

VERSIONS

ADVERTISEMENT