Casualties Tabs

Social Outcast

2 versions

TAB

            Social Outcast Tab by Casualties


The Casualties
Social Outcast

Intro
e-----------------|
B-----------------|
G---7------10-9-7-|
D-3-7-7-9--10-9-7-|
A-3-5-7-9--8--7-5-|
E-1---5-7---------|  x2


Verse
e------------------------------------------------------------|
B------------------------------------------------------------|
G----------77-9----99999999-10-10-10-10-10-10-10-10-7777777--|
D-99999999-77-9-9--99999999-10-10-10-10-10-10-10-10-7777777--|
A-99999999-55-7-9--77777777-8--8--8--8--8--8--8--8--5555555--|
E-77777777------7--------------------------------------------|


Solo
e--------------------------------------------------------------------------------------------|
B-7--7--7--7--7--7--7--7---------------------------------7--7--7--7--7---12--7--10-12-12-12--|
G-10^10^10^10^10^10^10^10^------------------------7-7-7--10^10^10^10^10^-15^-10^13^15^15^15^-|
D--------------------------9-999--------7-7-8-9-9--9-9-9-------------------------------------|
A---------------------------------7-8-9------------------------------------------------------|
E--------------------------------------------------------------------------------------------|

Chorus
e-----------------------------------------------|
B-----------------------------------------------|
G-9-7-9-7----------------9-7-9-7----------------|
D-9-7-9-7-99999999999999-9-7-9-7-99999999999999-|
A-7-5-7-5-99999999999999-7-5-7-5-99999999999999-|
E---------77777777777777---------77777777777777-|


Post Chorus
e-------------------------------------------|
B-------------------------------------------|
G------77-------------------77--------------|
D-7777-77-77-99999999--7777-77-77-99999999--|
A-7777-55-77-99999999--7777-55-77-99999999--|
E-5555----55-77777777--5555----55-77777777--|  x2

Solo
e---------------------------------------------------------|
B-7--7--7--7--7--7--7--7----------------------------------|
G-10^10^10^10^10^10^10^10^--------------------------------|
D--------------------------9-999-9-8-7--------------------|
A--------------------------------------9-8-8-7------------|
E----------------------------------------------10-9-7-77--|


Final solo
e------------------------------------------------------|
B-7--------------7-------------------------------------|
G-10^7-9-7-7-7-7-10^7-9-7-7-7-7---------------7-10^-7--|
D-------------------------------------7-8-8-9----------|
A-------------------------------7-8-9------------------|
E------------------------------------------------------|

End
e----------|
B----------|
G---77-9---|
D-9-77-9-9-|
A-9-55-7-9-|
E-7------7-|    

Added On December 4th, 2013

SHARE

Comments

blog comments powered by Disqus

VERSIONS

ADVERTISEMENT