Chimaira Tabs

Lazarus

2 versions

TAB

            Lazarus Tab by Chimaira


ARTIST:Chimaira
SONG:Lazarus
ALBUM:Chimaira
TABBED BY: nUmguitarist
TAB DATE:July 27-28 2005
TUNING:B F# B E G# C#
      (Top To Bottom)

|--x--x--|
|--x--x--|
|--x--x--|
|--x--x--|x1
|--x--x--|
|--x--x--|
Between the 1st and 2nd frets where the metal is
don't press down just hold your finger above

|---------------------|
|---------------------|
|---------------------|
|---------5-----------|x3
|-x/--4---5---444444--|
|-x/--4-------444444--|
              ......
then
|-------------------|
|-------------------|
|-------------------|
|------5------------|
|--4---5---2-2-2-2--|
|--4-------2-2-2-2--|
           . . . .
Repeat x3 
Until This Comes In

|----------------------------------------|
|----------------------------------------|
|----------------------------------------|
|---5---------5---------5---------5------|x1
|-4-5-4444--4-5-4444--4-5-4444--4-5-4444-|
|-4---4444--4---4444--4---4444--4---4444-|
      ....      ....      ....      ....


|--------------------------|    |---------------|
|--------------------------|    |---------------|
|--------------------------|    |---------------|
|----5-----5-------5-----5-|x3.5|----5----------|      
|-4--5--4--5--4-4--5--5--5-|    |-4--5--2-2-2-2-|
|-4-----4-----4-4-----5----|    |-4-----2-2-2-2-|     
        .     .       .                 . . . .

|-----------------------|
|-----------------------|
|-----------------------|
|-----------------------|x2
|-555-444-----555-444---|
|---------555---------5-|
  ... ... ... ... ... 

|-------------------------------------------------------|
|-------------------------------------------------------|
|-------------------------------------------------------|
|-------------------------------------------------------|x4
|-------------------------------------------------------|
|-444-44h5p444-444-44h5p444-444-44h5p44-444/777\555/888-|
  ... ..   ... ... ..   ... ... ..   .. ... ... ... ...     
^it's there but this is not right rythym (fast)

|-----------------------|    |--------------|
|-----------------------|    |--------------|
|-----------------------|    |--------------|
|-----------------------|x3.5|------------4-|x.5
|-555-444-----555-444---|    |-5-5-5--5\4-4-|
|---------555---------5-|    |-5-5-5--5\4---|
  ... ... ... ... ...          . . .
                               ^(Listen) this is at the end

Chorus:
|------------------------------|----------------------------------|
|------------------------------|----------------------------------|
|------------------------------|----------------------------------|
|------------------------------|----------------------------------|x4
|-4-5-4---4-4-5-4--(4)-2-22-22-|-4-5-4---4-4-5-4--5-5-7-7-5-5-4-4-|
|-4-5-4---4-4-5-4--(4)-2-22-22-|-4-5-4---4-4-5-4--5-5-7-7-5-5-4-4-|
          .            . .. ..           .

|-----------------|
|-----------------|
|-----------------|
|-----5-----------|x3
|-4---5---444444--|
|-4-------444444--|
          ......
then
|-------------------|
|-------------------|
|-------------------|
|------5------------|
|--4---5---2-2-2-2--|
|--4-------2-2-2-2--|
           . . . .
^Repeat x1

|-------------------------------------------------------|
|-------------------------------------------------------|
|-------------------------------------------------------|
|-------------------------------------------------------|x4
|-------------------------------------------------------|
|-444-44h5p444-444-44h5p444-444-44h5p44-444/777\555/888-|
  ... ..   ... ... ..   ... ... ..   .. ... ... ... ...     
^it's there but this is not right rythym (fast)


|-----------------------|    |--------------|
|-----------------------|    |--------------|
|-----------------------|    |--------------|
|-----------------------|x3.5|------------4-|x.5
|-555-444-----555-444---|    |-5-5-5--5\4-4-|
|---------555---------5-|    |-5-5-5--5\4---|
  ... ... ... ... ...          . . .
                               ^(Listen) this is at the end

Chorus:
|------------------------------|----------------------------------|
|------------------------------|----------------------------------|
|------------------------------|----------------------------------|
|------------------------------|----------------------------------|x4
|-4-5-4---4-4-5-4--(4)-2-22-22-|-4-5-4---4-4-5-4--5-5-7-7-5-5-4-4-|
|-4-5-4---4-4-5-4--(4)-2-22-22-|-4-5-4---4-4-5-4--5-5-7-7-5-5-4-4-|
          .            . .. ..           .

|--------------------|
|--------------------|
|--------------------|
|------------2---2---|
|-4--5---2~~---2---2-|
|-4--5---2~~---------|


|--------------------------------|----------------------------|
|--------------------------------|----------------------------|
|-------------6b^b^--------------|-------------6b^b^----------|
|-----------4------------2---2---|-----------4------------2---|
|-4-5-4~~-4----------2~~---2---2-|-4-5-4~~-4----------2~~---2-|
|-4-5-4~~------------2~~---------|-4-5-4~~------------2~~-----|


|---------|
|---------|
|---------|
|---------|
|-4-5-4~~-|
|-4-5-4~~-|

Guitar 1 (Distortion)
|---------------------------------------------------|
|---------------------------------------------------|
|---------------------------------------------------|
|---------------------------------------------------|
|-4~~----------2~~------4h5p4~~---------2~~---------|
|-4~~----------2~~------4h5p4~~---------2~~---------|

Guitar 2 (Clean)
|---------------------------------------------------|
|--------3-2~~--------3-2~~--------3-2~--------3-2~-|
|---------------------------------------------------|
|-----4~-----------4~-----------4~----------4~------|
|---4~-----------4~-----------4~----------4~--------|
|-4~-----------4~-----------4~----------4~----------|


|-------------------------------|
|-------------------------------|
|-------------------------------|
|-------------------------------|x3
|-----7-----5-----4-------------|
|-4-4---4-4---4-4---4-4-4-4-4-4-|
  . .   . .   . .   . . . . . . 

|--------------------------------|
|--------------------------------|
|--------------------------------|
|--------------------------------|
|-----7-----5--------------------|
|-4-4---4-4---4-4--777--5-5--888-|
  . .   . .   . .  ...  . .  ...

|-------------------------------|
|-------------------------------|
|-------------------------------|
|-------------------------------|x3
|-----7-----5-----4-------------|
|-4-4---4-4---4-4---4-4-4-4-4-4-|
  . .   . .   . .   . . . . . . 

|--------------------------------|
|--------------------------------|
|--------------------------------|
|--------------------------------|
|-----7-----5--------------------|
|-4-4---4-4---4-4--777--5-5--888-|
  . .   . .   . .  ...  . .  ...

         Solo????????

Guitar 2
|-------------------------------|
|-------------------------------|
|-------------------------------|
|-----9-----7-----6-------------|
|-4-4-7-4-4-5-4-4-4-4-4-4-4-4-4-|
|-4-4---4-4---4-4---4-4-4-4-4-4-|
  . .   . .   . .   . . . . . . 

|--------------------------------|
|--------------------------------|
|--------------------------------|
|-----9-----7--------------------|
|-4-4-7-4-4-5-4-4--777--5-5--888-|
|-4-4---4-4---4-4--777--5-5--888-|
  . .   . .   . .  ...  . .  ...

^Repeat all 4x times
then

|---------------------------|-----------------------------------|
|---------------------------|-----------------------------------|
|---------------------------|-----------------------------------|
|---------------------------|-----------------------------------|
|-4-5-4--4-4-5-4-4----------|-4-5-4--4-4-5-4--5-5-7-7-----------|
|-4-5-4--4-4-5-4-4-4b(down)-|-4-5-4--4-4-5-4--5-5-7-7--7b(down)-|
         .       .                   .

|---------------------------|-----------------------------|
|---------------------------|-----------------------------|
|---------------------------|-----------------------------|
|---------------------------|-----------------------------|
|-4-5-4--4-4-5-4-4----------|-4-5-4--4-4-5---5-4-2--5-4-2-|
|-4-5-4--4-4-5-4-4-4b(down)-|-4-5-4--4-4-5---5-4-2--5-4-2-|
         .       .                   .         . .  . . .

^Repeat all 2x

|------------------------------------------------|
|------------------------------------------------|
|------------------------------------------------|
|-7~--5~--------7~--5~-------7~--5~--------7~--5-|
|-5~--3~---5~---5~--3~---5---5~--3~---5~---5~--3-|
|----------5~------------5------------5~---------|


Chorus:
|------------------------------|----------------------------------|
|------------------------------|----------------------------------|
|------------------------------|----------------------------------|
|------------------------------|----------------------------------|x6
|-4-5-4---4-4-5-4--(4)-2-22-22-|-4-5-4---4-4-5-4--5-5-7-7-5-5-4-4-|
|-4-5-4---4-4-5-4--(4)-2-22-22-|-4-5-4---4-4-5-4--5-5-7-7-5-5-4-4-|
          .            . .. ..           .

|-------|
|-------|
|-------|
|-------|
|-4~~~~-|
|-4~~~~-|
 End on

(Clean)
|---------------------------------------------------|
|--------3-2~~--------3-2~~--------3-2~--------3-2~-|
|---------------------------------------------------|
|-----4~-----------4~-----------4~----------4~------|x11
|---4~-----------4~-----------4~----------4~--------|
|-4~-----------4~-----------4~----------4~----------|

This song is a very brutal song with one hell of a meaning behind it 
If anyone can tab out the solo it would be much appreciated
PLEASE!!!I couldn't figure it out.I did attempt it but it wasn't working
PLEASE!!!Thanks for reading this tab hope you enjoy it as much as i do
please send the solo to me at the emails listed below I prefer the aol one

P.S.if this gets posted elsewhere please give me some credit for this 
it took two days of listening over and over thanks.This is for ya'll,
                                                               nUmguitarist 
Emails:
revolter420666@aol.com,numguitarist@yahoo.com,numguitarist@hotmail.com    

Added On December 4th, 2013

SHARE

Comments

blog comments powered by Disqus

VERSIONS

ADVERTISEMENT