Chisu Tabs

Lahto

1 versions

TAB

            -------------------------------------------------------------------------
LÄHTÖ - Chisu
-------------------------------------------------------------------------
Tabbed by: Kengus

Official website: www.chisu.fi, www.myspace.com/chisumusic

Standard tuning

INTRO
  Am
e|-7-5-0-8-----5---|
B|-----------------|
G|-----------------|
D|-----------------|
A|-----------------|
E|-----------------|

VERSE1
   Am                Dm
Oi kultaisin, tää on kylmä maa
   C/G             G
Et sydäntäs palelluttaa saa
     Am                Dm
Niin tahtoisin kanssas kulkea
   C/G              G
ja pahalta silmäs sulkea

PRE-CHORUS
Em               F     Em             F           C     G6/B
    Mut viereltäin mun,    täytyy nyt sun kääntyä pois

VERSE2
    Am                Dm
Sun taivaalles laulan auringon
    C/G        G
Sun kasvoilles kuutamon
   Am               Dm
Sun sydämmes olkoon karttasi
   C/G          G
Sun muistosi sun kotisi

PRE-CHORUS
Em             F        C
    Siel' ootan sua ainiaan.

INTERLUDE/OUTRO
   Am                                     Dm
e|-8------8------8----8------8------8-----10-------10-------10----10-----|
B|---10-----10-----10---10-----10-----10-----10-------10-------10----10--|
G|------9------9-----------9------9-------------10-------10--------------|
D|-----------------------------------------------------------------------|
A|-----------------------------------------------------------------------|
E|-----------------------------------------------------------------------|
                      C/G
e|----10-------10-----12-------12-------12----12-------12-------12-------|
B|-------10-------10-----13-------13-------13----13-------13-------13----|
G|-10-------10--------------12-------12-------------12-------12----------|
D|-----------------------------------------------------------------------|
A|-----------------------------------------------------------------------|
E|-----------------------------------------------------------------------|
   G
e|-10-------10-------10----10-------10-------10----|
B|----12-------12-------12----12-------12-------12-|
G|-------12-------12-------------12-------12-------| x3      (Am)
D|-------------------------------------------------|
A|-------------------------------------------------|
E|-------------------------------------------------|

=========================================================================    

Added On December 16th, 2013

SHARE

Comments

blog comments powered by Disqus

ADVERTISEMENT