Chuck Berry Tabs

Roll Over Beethoven

5 versions

TAB

            Roll Over Beethoven Tab by Chuck Berry


this is a long song so here we go
this is the intro

e---------10-10-10-10-10-10-10-10--13p12-10-----------|
b---10-12-10-10-10-10-10-10-10-10-----------13p12-10--|
g-11--------------------------------------------------|
d-----------------------------------------------------|
a-----------------------------------------------------|
e-----------------------------------------------------|


e-----------------------------------------10-10-10-10-10-|
b------------------------------10-10-10---10-10-10-10-10-|
g12-10-------11-11-11-11-11-11-11-11-11------------------|
d-----12-10--12-12-12-12-12-12---------------------------|
a--------------------------------------------------------|
e--------------------------------------------------------|


e--------------10-10-10-10---------------------------------|
b-12-10--------10-10-10-10-12-10---------------------------|
g-12-10-11-----------------12-10---------------------------|
d----------12--------------------12------------------------|
a----------------------------------------------------------|
e----------------------------------------------------------|

e---------------------------------------10-10-10-10-12-13-12-10-|
b----10-10b----10-10b---10-10b--10-10b--10-10-10-10-12-13-12-10-|
g----10-10b----10-10b---10-10b--10-10b--------------------------|
d-12--------12--------12------12--------------------------------|
a---------------------------------------------------------------|
e---------------------------------------------------------------|

e-10-10-10-10-12-13-12-10-------------------------------------------|
b-10-10-10-10-12-13-12-10---13-12-10---10-10---10-10----10-10-------|
g---------------------------13-12-10---10-10---10-10----10-10-------|
d-----------------------------------12-------12------12-------------|
a-------------------------------------------------------------------|
e-------------------------------------------------------------------|
lyrics
im gonna write a little letter gonna mail it to my local dj
its a jumpin little record i want my jocky to play
roll over beethoneven i got to hear it again today

u know my temp rising the jut box bolw the fuse
my heart beating rythem and my soul keepin singin the blues
roll over beethoven tell techkowski the news

i got the rockin pneumonia i need a shot of rythem and blues i got the rollin off the 
sitting down at a rythem review roll over beethoven they rockin in 2 by 2s

well if u fell it like it go get ur lover then really rock it roll ir over then move on 
yes typ of further the really rockin with oneanother roll over beethoven dig these 
and blues

GUITAR SOLO

e---------------------------10-10------10-10-----------------|
b----------10-13b15-10------10-10------10-10-----------------|
g----7-9-11-----------12b14-------12b14----------------------|
d-7-9--------------------------------------------------------|
a------------------------------------------------------------|
e------------------------------------------------------------|

e-10-10-10-13-12-10----------------10-10-------10-10------------|
b-10-10-10-13-12-10-13-12-10-------10-10-------10-10------------|
g-------------------13-12-10-12b14-------12b14------------------|
d---------------------------------------------------------------|
a---------------------------------------------------------------|
e---------------------------------------------------------------|

e----------------------------------------------------------------|
b-13b15-13b15-13b15----------10-10--10-10---10-10----------------|
g-------------------10-11----10-10--10-10---10-10----------------|
d-------------------------12------12-----12----------------------|
a----------------------------------------------------------------|
e----------------------------------------------------------------|

e-13-12-10---10--------------------------------------------------------|
b-13-12-1012-10-12--------10b12s-8-10----8-10--------------------------|
g---------12----12------7-------------10-------------------------------|
d------------------7-10------------------------------------------------|
a----------------------------------------------------------------------|
e----------------------------------------------------------------------|

e----------------------------------------------------------10-13-12-13---|
b-------10-10-------10-10-------10-10-------10-13-10---------------------|
g-12b14------12b14--------12b14-------12b14------------------------------|
d------------------------------------------------------------------------|
a------------------------------------------------------------------------|
e------------------------------------------------------------------------|

e-------------------------------------------------------------------|
b------10-13-10------10-13-10-------10-13-10--------10-13-10--------|
g12b14----------12b14---------12b14-----------12b14----------12b14--|
d-------------------------------------------------------------------|
a-------------------------------------------------------------------|
e-------------------------------------------------------------------|

e---------------------------------------------------------------------|
b-10-13-10-13b15------------------------------------------------------|
g---------------------------------------------------------------------|
d---------------------------------------------------------------------|
a---------------------------------------------------------------------|
e---------------------------------------------------------------------|

there is the intro solo the first lyrics and the guitar solo the chords are
D   G    D    D    A   just like that...................by jp or james pugrad    

Added On December 4th, 2013

SHARE

Comments

blog comments powered by Disqus