City And Colour Tabs

Sam Malone

1 versions

TAB

            Sam Malone Tab by City And Colour


---------------------------------------------------------------------------
	    Same Malone - Dallas Green (A.K.A. City and Colour)
---------------------------------------------------------------------------
Tabbed by: Alex
Email:  midnight_debaucheries@hotmail.com

Tuning: Standard

This is my first tab, and I’m almost sure it’s close to, if not perfect.  I’ll just give 
the chords and technicalities; you guys can listen to the song and learn the pattern.

Thanks to whoever tabbed the first version of this song, since it pretty much got me started.

| /  slide up
| \  slide down
| h  hammer-on
| p  pull-off
| ~  vibrato
| +  harmonic
| x  Mute note

NOTE:  I find it sounds WAY more like the song in the verses if you strum the top three 
then bottom three strings and keep alternating back and forth throughout.

Intro (Does not always stay this exact way)
e|-------------------------|
B|-------------------7+----|
G|-------7---6-------------|     X 4
D|---------------7+--------|
A|-------------------------|
E|-----7---7---7---7-------|

e|-----------------------------------------|
B|-----------------------------------0-----|
G|---------------2---------------2---------|   X 2
D|-------2---4-------4---2---4-------------|
A|-----------------------------------------|
E|-----3---3---3---3---3---3---3---3-------|

Verses
e|------X-----X-----X---------0----------0----0---------|
B|------0-----0-----0---------0----------0----0---------|
G|------7--p--6-----6---------0----------X----0---------|
D|------0-----0--h--7---------0----------4----0---------|
A|------5-----5-----5---------2----------2----2---------|
E|------7-----7-----7---------3----------3----3---------|
“And you, can, try, to fight this all you want...”

Choruses
e|------0-/-0----0-/-0----0-----------------------------|
B|------0-/-0----0-/-0----0-----------------------------|
G|------0-/-0----0-/-0----0-----------------------------|
D|------0-/-0----0-/-0----0-----------------------------|
A|------5-/-7----2-/-5----2-----------------------------|
E|------5-/-7----2-/-5----2-----------------------------|
"And I know, there is, some place I can go..."

e|------0-----0--0----0--------0------0---0---0--0---0--|
B|------0-----0--0----0--------0------0---0---0--0---0--|
G|------0-----0--0----0--------0------0---0---0--X---0--|
D|------0-----0--0----0--------0------0---0---0--4---0--|
A|------5-----7--2----5--------7------2-p-0-h-2--2---2--|
E|------5-----7--2----5--------7------3---3---3--3---3--|
“Where no, one knows, my name…”

Ending
e|------0-/-0----0-/-0----0----|
B|------0-/-0----0-/-0----0----|
G|------0-/-0----0-/-0----0----|   X 2
D|------0-/-0----0-/-0----0----|
A|------5-/-7----2-/-5----2----|
E|------5-/-7----2-/-5----2----|


And that's it!

Last, if you want to post this elsewhere, go ahead, but you MUST GIVE ME CREDIT FOR IT.

Any questions, comments, or hate mail can be sent to midnight_debaucheries@hotmail.com.  
appreciate advice, being that this is my first tab.  PLEASE rate it!

Cheers,
Alex    

Added On December 4th, 2013

SHARE

Comments

blog comments powered by Disqus

ADVERTISEMENT