Coheed And Cambria Tabs

The Hound

3 versions

TAB

            ----------------------------------------------------------------------------
              The Hound (Of Blood And Rank) – Coheed and Cambria
----------------------------------------------------------------------------
Hello! I was looking for a good tab of this song, and I found there wasn't any so I 
I'd put this one I made on till some one good tabs it. Its not perfect but I'm sure all the 
fans out there that wanna just play and stuff will make use of it. Cheers

Tabbed by:Paddy
Email: Paddy_s13@hotmail.com

Tuning: Standard eBGDAE

Intro: Delay pedal
e|--h12p0--x8--h10p0--x8--h8p0--x8---h7p0--x8------------------------------|
B|-------------------------------------------------------------------------|
G|---------------Its just a load of hammer ons-----------------------------|
D|------------------------and pull offs------------------------------------|
A|---------------------Sounds funky though---------------------------------|
E|-------------------------------------------------------------------------|

e|--12p10---12p10--------12p10---12p10--------|
B|-------12------10-12--------12-------8-10---|
G|--------------------------------------------|x2 second time round and the
D|--------------------------------------------|bit bellow
A|--------------------------------------------|
E|--------------------------------------------|

e|--12p10---12p10-------------------|
B|--------12-------7-8-7h8p7--------|
G|---------------------------9------|  Listen to the song for the timing
D|----------------------------------|
A|----------------------------------|
E|----------------------------------|

Verse:
e|----------------------------------------|    there is a lot of palm muting so listen
B|----------------------------------------|    out for that.
G|--9------7------------------------------|    Also before the chorus this chord is played
D|--9-x8---7--x8---7--------| x4 |-10-----|
A|--7------5-------7--x16---|    |-10-----| x3
E|-----------------5--------|    |-8------|

Chrous: Come on come on come on........
e|----------------------------------------------------------|       Main Riff
B|---------------------|        |---------------------------|
G|---------------------| x4     |---------------------------|
D|-22—-77—-55--99--55--|        |-0-2-5-2-0-2---------------|
A|-22--77--55--99--55--|        |-------------0-0-0-0-------|
E|-00--55--33--77--33--|        |---------------------3-0---|

I'll dig it till we've...............
e|----------------------------|
B|----------------------------|
G|-5-------------7------------|
D|-5-x16--2------7-x8---------|
A|-3------2-x8---5------------|
E|--------0-------------------|

Guitar2
e|---8-------7---------------------------------|
B|------8-------8----10-8-------8--------------|
G|---------9-------9-------(9)----9--7-7-9-9-7-| Other guitar riff
D|---------------------------------------------|
A|---------------------------------------------|
E|---------------------------------------------|


e|---------------------------------------------|
B|---------------------------------------------|
G|---------------------------------------------|
D|--10-------9-------------10-----9------------|
A|-----10-10---10-10--5-7------10---10-5-7-7-5-|
E|---------------------------------------------|


Solo
e|-------------------------15----------------------------------------------|
B|--15b--15b--15b-13-12-13----12-12-13-12----------------------------------|
G|----------------------------------------14-14--12-14-14/16-14-12---------|
D|-----------------------------------------------------------------14------|
A|-------------------------------------------------------------------------|
E|-------------------------------------------------------------------------|

e|-------------------------------------------------------------------------|
B|-------------------------------------------------------------------------|
G|-------------------------------------------------------------------------|
D|--141412--12-------------------------------------------------------------|
A|--------14--141210101210-----14--12--10--14--12--10-14---10--9-----------|
E|------------------------12-----------------------------------------------|


e|------7-------------------------------|----------5h6p5h7p5h8p5h7p5\3-----|
B|--7-8---88--7-87-7--------------------|-5h7p5h8p5------------------------|
G|--------------------9-9*~--5-7-9-7-5-4-|---------------------------------|
D|--------------------------------------|----------------------------------|
A|--------------------------------------|----------------------------------|
E|--------------------------------------|----------------------------------|

e|--578--578-10--78-10-78-10/12-101214--121415--17b------------------------|
B|-------------------------------------------------------------------------|
G|-------------------------------------------------------------------------|
D|-------------------------------------------------------------------------|
A|-------------------------------------------------------------------------|
E|-------------------------------------------------------------------------|

YAY now Tom can play it too!
Paddy!

| /  slide up
| \  slide down
| h  hammer-on
| p  pull-off
| ~  vibrato
| *  harmonic
| x  Mute note
============================================================================    

Added On December 16th, 2013

SHARE

Comments

blog comments powered by Disqus

VERSIONS

ADVERTISEMENT