Counting Crows Tabs

Washington Square

3 versions

TAB

            This piano track can be played on the guitar using the following four chords:

Emaj 022100
C#m  x46650
Bm11 x24430
Amaj x02220

It is preferable that the chords are picked, in the following manner:

-0------0-----2p0------------------------------------------------------|
---0------0-------4-4h5------5-------3---------3----------2------------|
-----1--------1---------6------6--------4---------4----------2---------|
--------------------------6------6---------4---------4----------2------|
-2------2-----------4--------4-------2---------2----------0------------|
-0------0--------------------------------------------------------------|

-----------------------------------------------------------------------|
-2---------------------------------------------------------------------|
----2------------------------------------------------------------------|
-------2---------------------------------------------------------------|
-0---------------------------------------------------------------------|
-----------------------------------------------------------------------|

Repeating for each bar    

Added On December 16th, 2013

SHARE

Comments

blog comments powered by Disqus

VERSIONS

ADVERTISEMENT