Daughtry Tabs

Sorry

1 versions

TAB

            -------------------------------------------------------------------------------
			     "Sorry" - Daughtry
-------------------------------------------------------------------------------
Tabbed by: TexasREL
Email: i_got_skillz2007@yahoo.com

Tuning: Standard

Intro:
e|-0-----3-----0-|
B|-0-----0-----0-|
G|-0-----0-----2-|   x2
D|-2-----0-----2-|
A|-2-----2-----0-|
E|-0-----3-----0-|

Verse:
e|-0-----3-----0-|
B|-0-----0-----0-|
G|-0-----0-----2-|   x3
D|-2-----0-----2-|
A|-2-----2-----0-|
E|-0-----3-----0-|

Pre-Chorus:
e|-0-----3-----3-----2-|
B|-0-----0-----3-----3-|
G|-0-----0-----2-----2-|   x1
D|-2-----0-----0-----0-|
A|-2-----2-----x-----x-|
E|-0-----3-----x-----x-|

Chorus:
e|-0-----3-----0-----0-|
B|-0-----0-----3-----1-|
G|-0-----0-----2-----0-|   x4
D|-2-----0-----0-----2-|
A|-2-----2-----x-----3-|
E|-0-----3-----x-----x-|

Intro x1
Verse x3
Pre-Chorus x1
Chorus x4

Bridge:
e|-0-----0-|
B|-1-----0-|
G|-0-----4-|   x2
D|-2-----4-|
A|-3-----2-|
E|-x-----x-|

e|-0-----0-|
B|-1-----3-|
G|-0-----2-|   x2
D|-2-----0-|
A|-3-----x-|
E|-x-----x-|

Intro x2
Chorus x8    

Added On December 16th, 2013

SHARE

Comments

blog comments powered by Disqus

ADVERTISEMENT