Def Leppard Tabs

Pour Some Sugar On Me

5 versions

TAB

            Pour Some Sugar On Me Tab by Def Leppard


In the beginning of the song its starts with some vocals then the guitar comes in.

-------------------------------------------------------------------|
-------------------------------------------------------------------|
-------------------------------------------------------------------|
-10-8-8-10-8-8-10---10-8-8-10-8-8-7---10-8-8-10-8-8-10---10-8-8-10-|
-------------------------------------------------------------------|
-------------------------------------------------------------------|

Then some more vocals

---------------|
---------------|
---------------|
-6-6--4-6-4-6--|  x8
-4-4--2-4-2-4--|
---------------|

-------------------------------------|
-------------------------------------|
---6-4-4----6-4-4----4-2-2----2-4-4--|
-4-6-4-4--4-6-4-4--2-4-2-2--2-2-4-4--|
-4--------4--------2--------2--------|
-------------------------------------|

Then you come to the chours of the song

-----------------------|
-----------------------|
-------2-2--4-4--4-4---| x3
--2-2--2-2--4-4--4-4---|
--2-2------------------|
-----------------------|

Then you go back to the begginging of the song

-------------------------------------------------------------------|
-------------------------------------------------------------------|
-------------------------------------------------------------------|
-10-8-8-10-8-8-10---10-8-8-10-8-8-7---10-8-8-10-8-8-10---10-8-8-10-|
-------------------------------------------------------------------|
-------------------------------------------------------------------|

Then ths same thing as last time

---------------|
---------------|
---------------|
-6-6--4-6-4-6--|  x8
-4-4--2-4-2-4--|
---------------|

-------------------------------------|
-------------------------------------|
---6-4-4----6-4-4----4-2-2----2-4-4--|
-4-6-4-4--4-6-4-4--2-4-2-2--2-2-4-4--|
-4--------4--------2--------2--------|
-------------------------------------|

Then you come to the chours of the song

-----------------------|
-----------------------|
-------2-2--4-4--4-4---| x3
--2-2--2-2--4-4--4-4---|
--2-2------------------|
-----------------------|

Then comes the solo
(Hint strum very lightly in the begginning and then loud at the end)
----------------------------------------------------------|
----------------------------------------------------------|
-7-7-6-6-7-7-6-6-7-7-6-6-7-7-6-6-7-7-6-6-7-7-6-6-7-7-6-6--|
----------------------------------------------------------|
----------------------------------------------------------|
----------------------------------------------------------|

-------------------------------|
-------------------------------|
-------------------------------|
-2-2----2-2--2-----------------|
-2-2----2-2----2-5-6-----------|
-------------------------------|

----------------------------------------------------------|
----------------------------------------------------------|
-7-7-6-6-7-7-6-6-7-7-6-6-7-7-6-6-7-7-6-6-7-7-6-6-7-7-6-6--|
----------------------------------------------------------|
----------------------------------------------------------|
----------------------------------------------------------|

-------------------------------|
-------------------------------|
-------------------------------|
-2-2----2-2--2-----------------|
-2-2----2-2----2-5-6-----------|
-------------------------------|
Then some more chours

-------------------------------|
-------------------------------|
-------------------------------|
-2-2----2-2--2-----------------|
-2-2----2-2----2-5-6-----------|
-------------------------------|

-------------------------------------|
-------------------------------------|
---6-4-4----6-4-4----4-2-2----2-4-4--|
-4-6-4-4--4-6-4-4--2-4-2-2--2-2-4-4--|
-4--------4--------2--------2--------|
-------------------------------------|

-----------------------|
-----------------------|
-------2-2--4-4--4-4---| x 7
--2-2--2-2--4-4--4-4---|
--2-2------------------|
-----------------------|
Then the ending

----------------|
----------------|
-------2-2--4-4-|
--2-2--2-2--4-4-|
--2-2-----------|
----------------|    

Added On December 16th, 2013

SHARE

Comments

blog comments powered by Disqus