Depeche Mode Tabs

The Sun And The Moon And The Stars

1 versions

TAB

            {titulo: the sun,and the moon and the stars}
{autor:martin gore}
{interprete:Depeche Mode}

Intro: (F#m,E) 2 VECES

F#m
One subtle look
A
God help me
Bm
Is all it took
E
To sell me

(Repite acordes)
One single word
Unspoken
Your name unheard
And I’m broken

F#m
The sun and the moon
                                              A
and the stars in the sky are laughing
               Bm                        E
They’ve seen it all before
             F#m
For the wind in the trees

and the waves on the seas
              A
It’s the same thing
           Bm                            E
They can’t take any more

(repite acordes)
One gentle touch
and I’m helpless
It’s all too much
For my senses
One simple prayer
Denied me
When you’re not there
Beside me

The sun and the moon
and the stars in the sky are laughing
They’ve seen it all before
For the wind in the trees
and the waves on the seas
It’s the same thing
They can’t take any more
Coro: Despues de  “The sun and the moon
and the stars in the sky are laughing”

E:--------------------------------------------------------------------|
B:--------------------------------------------------------------------|
G:--------------------------------------------------------------------|
D:--------------------------------------------------------------------|
A:-----9--7------------------4--6--4-----------4--6--4----------------|
E:--9--------9--9----6--6-------------6--6---------------6--6----5--5-|

------------------------------------|
------------------------------------|
------------------------------------|
------------------------------------|
---3--5--3-----------3--5--3--------|
------------5--5--------------5--5--|

Solo: (con distorsión)
E:-------------------------------------------------------------------------------|
B:-------------------------------------------------------------------------------|
G:-------------------------------------------------------------------------------|
D:-------------------------------------------------------------------------------|
A:---------0---2---0-----------0---2---0--------------------------7--9--7--------|
E:-2--2---------------2--2-----------------2---2----------9--9-------------9--9--|

-------------------------|
-------------------------|
-------------------------|
-------------------------|
--7--9--7----------------|
-------------9—9/2----2--|

Es lo más parecido que encontré. Espero que les sirva
Cualquier duda o comentario: rodri_modecure@hotmail.com    

Added On December 16th, 2013

SHARE

Comments

blog comments powered by Disqus

ADVERTISEMENT