Die Aerzte Tabs

Himmelblau

3 versions

TAB

            Riff:
E|------------------------|
H|-------------------------------------------------|
G|-11---11---11--11---11---11-11--11--11-11--11-11-|
D|---11---11-------9----9-------9---9------8--8----|
A|9----9----9--11---11---11--9---9---9--9---9--9---|
D|-------------------------------------------------|


Verse:
E|------------------------------|
H|-----------------------------------------------------------------------|
G|---F#-------g#-------d#-------E--------F#-------g#-------F#-------E----|
D|44444444-66666666-11111111-22222222-44444444-66666666-44444444-22222222|
A|44444444-66666666-11111111-22222222-44444444-66666666-44444444-22222222|
D|44444444-66666666-11111111-22222222-44444444-66666666-44444444-22222222|


Chorus:
E|-----------6--6-6--------------------|
H|-------------------------------------|
G|---F#-------g#-------d#--------E-----|
D|4-4-444446-6-66-66-1-1-1111-12222222-|
A|4-4-444446-6-66-66-1-1-1111-12222222-|
D|4-4-444446-6-66-66-1-1-1111-12222222-|


Outro:
E|-----------6--6-6----------------------|
H|---------------------------------------|
G|---F#-------g#-------d#----------E-----|
D|4-4-444446-6-66-66-111-111-111-2222222-|
A|4-4-444446-6-66-66-111-111-111-2222222-|
D|4-4-444446-6-66-66-111-111-111-2222222-|

E|-----------6--6-6--------------------|
H|-------------------------------------|
G|---F#-------g#-------d#--------E-----|
D|4-4-444446-6-66-66-1-1-1111-12222222-|
A|4-4-444446-6-66-66-1-1-1111-12222222-|
D|4-4-444446-6-66-66-1-1-1111-12222222-|

E|-----------6--6-6----------------|
H|---------------------------------|
G|---F#-------g#-------d#------E---|
D|4-4-444446-6-66-66-11-11-11-22-2-|
A|4-4-444446-6-66-66-11-11-11-22-2-|
D|4-4-444446-6-66-66-11-11-11-22-2-|



Now here's the structure of the whole song:

Riff   4x
Verse  2x
Chorus 2x
Verse  2x
Chorus 3x
Chorus 1x (continuous strumming on d# and E)
Chorus 4x
Verse  1x (silent)
Riff   2x
Chorus 3x
Outro  1x


And the lyrics:

Der Himmel ist blau und der Rest deines Lebens liegt vor dir
Vielleicht wär es schlau, dich ein letztes Mal umzusehen
Du weißt nicht genau, warum - aber irgendwie packt dich die Neugier
Der Himmel ist blau, und der Rest deines Lebens wird schön, yeah!

Du hast ein gutes Gefühl, du denkst an all die schönen Zeiten
Es ist fast zu viel, jetzt im Moment neben dir zu stehen
Du hast kein klares Ziel, aber Millionen Möglichkeiten
Ein gutes Gefühl - und du weißt es wird gut für dich ausgehen, yeah!

(3rd chorus:) Der Himmel ist blau... yeah!

(3rd chorus:) Der Himmel ist blau...

Die Welt gehört dir: Was wirst du mit ihr machen?
Verrat es mir - spürst du, wie die Zeit verrint?
Jetzt stehst du hier und du hörst nicht auf zu lachen
Die Welt gehört dir - und der Rest deines Lebens beginnt, yeah!

Der Himmel ist blau, so blau, so blau, so blau, so blau, so blau... yeah!



Ok, that's it. Now it should have the "beste Band der Welt"-sound!
Please leave a comment if you like it or if there's a mistake.    

Added On December 16th, 2013

SHARE

Comments

blog comments powered by Disqus

VERSIONS

ADVERTISEMENT