Die Mannequin Tabs

Near The End

2 versions

TAB

            Near The End by Die Mannequin
Unicorn Steak (2008) / How To Kill (2006)
Tuning: Drop D
P.S. Song structure at bottom
Enjoy! :D

Intro:
*Part 1*
palm mute
e----------------------|
b----------------------|
g----------------------|
d-0-2222-0-2-----------| x3
a-0-2222-0-2-----------|
D-0-2222-0-2-----------|

on the last time...

e----------------|
b----------------|
g----------------|
d-2-000000-------|
a-2-000000-------|
D-2-000000-------|


then repeat into using your fingers so you can strum the headstock part and end with and open

Next do the intro/part 1, twice

...*Part 2*
e----------------------------|
b----------------------------|
g----------------------------|
d-2222222222222-2-0-000000---| x2
a-2222222222222-2-0-000000---|
D-2222222222222-2-0-000000---|

*Part 3*
e---------------------------|
b---------------------------|
g---------------------------|
d-0-0-4-2-4-2-4-2-4-2-------| x2
a-0-0-4-2-4-2-4-2-4-2-------|
D-0-0-4-2-4-2-4-2-4-2-------|

*Part 4*
e------------------------------|
b------------------------------|
g------------------------------|
d-99-555-77-22--99-555-7---22--|
a-99-555-77-22--99-555-7---22--|
D-99-555-77-22--99-555-7---22--|

*Bridge*
e-----------------------------|
b-----------------------------|
g-----------------------------|
d-4-4-4-4-4-0-0-3-3-3-3-3-0-0-|
a-4-4-4-4-4-0-0-3-3-3-3-3-0-0-|
D-4-4-4-4-4-0-0-3-3-3-3-3-0-0-|

*Structure*

Intro
Part 2
Part 3
Part 4
Intro
Part 2
Part 3
Part 4
Bridge
Part 3
Part 4
Intro    

Added On December 16th, 2013

SHARE

Comments

blog comments powered by Disqus

VERSIONS

ADVERTISEMENT