Drake Bell Tabs

Hollywood Girl

7 versions

TAB

            Hollywood Girl Tab by Drake Bell


Intro/Verse
|--------------------------|-------0-|
|--------------------------|-------0-|
|----------------2-2---2-2-|-------1-|
|----------------2-2---2-2-|-------2-|
|--0--0-0h4-0-0--0-0---0-0-|-------2-|
|--------------------------|-0-0---0-|

Pre Chours
|--------------------------|-----------------|-0-|
|--------------------------|-----------------|-0-|
|-6--6--6--6---7--7--7--7--|-2---------------|-1-|
|-6--6--6--6---7--7--7--7--|-2---------------|-2-|
|-4--4--4--4---5--5--5--5--|-0---0h4-0h4-0h4-|-2-|
|--------------------------|-----------------|-0-|

Chours
|---------------------------------------------------------0-0-|
|---------------------------------------------------------0-0-|
|-7-7-7-7--2-2-2-2-----------6-6-6-6--7-7-7-7--2-2-2-2----1-1-|
|-7-7-7-7--2-2-2-2--4-4-4-4--6-6-6-6--7-7-7-7--2-2-2-2----2-2-|
|-5-5-5-5--0-0-0-0--4-4-4-4--4-4-4-4--5-5-5-5--0-0-0-0----2-2-|
|-------------------2-2-2-2-----------------------------0-0-0-|

Interlude
|-------------------|---------|
|-------------------|---------|
|-------------------|---------|
|-----------4-4-4-4-|--4---6--|
|-4-4-4-4---4-4-4-4-|--4---6--|
|-4-4-4-4---2-2-2-2-|--2---4--|
|-2-2-2-2-----------|---------|    

Added On December 4th, 2013

SHARE

Comments

blog comments powered by Disqus