Early November Tabs

Ashala Rock

3 versions

TAB

            Ashala Rock Tab by Early November


Tuning CGCFAD
dropped d down 1 step  
INTRO
  h h
D|-----------------------|
A|-------8-7-------------|
F|-------7-7-------------|
C|--5--------------------|
G|5----------------------|
C|----0------------------|
           random strumming patterns
verse
palm muting on 6, 5 4th strings (pattern easy to figure out)
D|------------------------------------------------------------------|
A|-------8-7-8-7--------------------------------------------8-7-8-7-|
F|-------7-7-7-7--------------------------------------------7-7-7-7-|
C|---------------5-5-5-5-5-5-5-5-5----------------------------------|
G|0-0-0----------5-5-5-5-5-5-5-5-5----------------------------------|
C|0-0-0----------5-5-5-5-5-5-5-5-5---0-0-0-0-0-0-0-0-0-0------------|

D|----------------------------------------------------------------------|
A|------------------------------------------8-7-8-7---------------------|
F|------------------------------------------7-7-7-7---------------------|
C|5-5-5-5-5-5-5-5-5----------------------------------5-5-5-5-5-5-5-5-5--|
G|5-5-5-5-5-5-5-5-5----------------------------------5-5-5-5-5-5-5-5-5--|
C|5-5-5-5-5-5-5-5-5---0-0-0-0-0-0-0-0-0-0------------5-5-5-5-5-5-5-5-5--|

D|---------------------------------------------------------------|
A|---------------------8-7-8-7-----------------------------------|
F|---------------------7-7-7-7--7--------------------------------|
C|------------------------------5--------------------------------|
G|------------------------------5--------------------------------|
C|0-0-0-0-0-0-0-0-0-0-----------5--------------------------------|

chorus
strumming pattern should be easy to get
D|---------------------------|
A---0------------------------|
F|--7-7----------------------|
C|--7-7----------------------|
G|--0-5----------------------|
C|----5----------------------|

outro part 1
D|------------------|
A|------------------|
F|7-7-7-7-----------|
C|7-7-7-7-----------|
G|--5-4-0-----------|
C|7-5-4-0-----------|

outro
D|----------------|
A|----------------|
F|7-7-7-----------|
C|7-7-7-----------|
G|5-4-0-----------|
C|5-4-0-----------|    

Added On December 4th, 2013

SHARE

Comments

blog comments powered by Disqus

VERSIONS

ADVERTISEMENT