Early November Tabs

I Want To Hear You Sad

4 versions

TAB

            I Want To Hear You Sad Tab by Early November


Early November
I want to hear you sad
By Kyle Woodward

Intro uses hermonics

e|-------------------------------------------------------------------| 
B|-------------------------------------------------------------------| 
G|-------------------------------------------------------------------| 
D|--------------------------(5)-----------------------------(5)------| 
A|-----(5)---(5)-----(5)----------------(5)---(5)-----(5)------------| 
D|3--------3-------3-----3---------3--------3-------3-----3----------| 

e|-------------------------------------------------------------------| 
B|-------------------------------------------------------------------| 
G|-------------------------------------------------------------------| 
D|--------------------------(5)-----------------------------(5)------| 
A|-----(5)---(5)-----(5)----------------(5)---(5)-----(5)------------| 
D|5--------5-------5-----5---------5--------5-------5-----5----------|

Intro guitar 2
e|-------------------------------------------------------------------| 
B|-------------------------------------------------------------------| 
G|---13---11-10--8---------------------------------------------------| 
D|---x----x--x---x---------------------------------------------------| 
A|---11---9--8---6---------------------------------------------------| 
D|-------------------------------------------------------------------|

Chorus
e|-------------------------------------------------------------------| 
B|-------------------------------------------------------------------| 
G|---7777777777777---------------------------------------------------| 
D|---7777777777777-----555555555555----777777777777---555555555555---| 
A|---5555555555555-----555555555555----777777777777---555555555555---| 
D|---------------------555555555555----777777777777---555555555555---| 

Verse x2

Break down
e|-------------------------------------------------------------------| 
B|-------------------------------------------------------------------| 
G|-------------------------------------------------------------------| 
D|---444444--5555555-------------------------------------------------| 
A|---444444--5555555-------------------------------------------------| 
D|---444444--5555555-------------------------------------------------|

Chorus x 2

Thats the whole song about 99% correct    

Added On December 4th, 2013

SHARE

Comments

blog comments powered by Disqus