Early November Tabs

Just Enough

1 versions

TAB

            Just Enough Tab by Early November


Artist: the early november
Song: just enough

This is the drive thru dvd version. Enjoi

Standard tuning

~ let ring
/ slide
x mute
E|----------------------------------------------------|
B|----------------------------------------------------|
G|---------8-8-------------8-8-------------8-8--------| x5    verse/intro
D|-----9-9-----9-9-----9-9-----9-9-----9-9-----9-9----|
A|-7-7-------------7-7-------------0-0-------------0-0|
E|----------------------------------------------------|


E|---------------|
B|---------------|
G|8-8-8-8-8-8-8-8|   prechorus
D|9-9-9-9-9-9-9-9|
A|---------------|
E|---------------|

E|---------------------------------------------------------------------------------|
B|---------------------------------------------------------------------------------|
G|-9---9-9-----9-9--9-9-9-9-9-9-9-9-9-9-9-9-9-9-9-9--9-9-9-9-9-9-9-9|x2     chorus
D|-9---9-9-----9-9--9-9-9-9-9-9-9-9-9-9-9-9-9-9-9-9--9-9-9-9-9-9-9-9|
A|------------------7-7-7-7-7-7-7-7-7-7-7-7-7-7-7-7/67-7-7-7-7-7-7-7|
E|-7/9-9-9-7/9-9-9--5-5-5-5-5-5-5-5------------------5-5-5-5-5-5-5-5|

E|-----------------------------------|
B|-----------------------------------|
G|-8-8-8-8-8-8-8-8-9-9-9-9-9-9-9-9-8~|    post chorus
D|-9-9-9-9-9-9-9-9-9-9-9-9-9-9-9-9-9~|
A|-----------------------------------|
E|-----------------------------------|

E|-----------------------------------------------------------------------|
B|-----------------------------------------------------------------------|
G|-9-9-9-9-9-9-9-9-9-9-9-9-9-9-9-9-9--9--9--9--9--9--9--9-9-9-9-9-9-9-9-9| x2  
D|-9-9-9-9-9-9-9-9-9-9-9-9-9-9-9-9-9--9--9--9--9--9--9--9-9-9-9-9-9-9-9-9| interlude
A|-7-7-7-7-7-7-7-7-7-7-7-7-7-7-7-7-------------7--7--7--7-7-7-7-7-7-7-7-7| 
E|-5-5-5-5-5-5-5-5-7-7-7-7-7-7-7-7-9--9--9--9--7--7--7--7-5-5-5-5-5-5-5-5|


E|--------------------------------|
B|--------------------------------|
G|-8-8-8-8-8-8-8-8-9-9-9-9-9-9-9-9|x4  bridge
D|-9-9-9-9-9-9-9-9-9-9-9-9-9-9-9-9|
A|--------------------------------|
E|--------------------------------|

E|-----------------------------------------------------------------|
B|-----------------------------------------------------------------|
G|-9-9-9-9-9-9-9-9--9-9-9-9-9-9-9-9-9-9-9-9-9-9-9-9-9-9-9-9-9-9-9-9| x2   outro
D|-9-9-9-9-9-9-9-9--9-9-9-9-9-9-9-9-9-9-9-9-9-9-9-9-9-9-9-9-9-9-9-9|
A|-7-7-7-7-7-7-7-7/67-7-7-7-7-7-7-7-7-7-7-7-7-7-7-7-7-7-7-7-7-7-7-7|
E|------------------5-5-5-5-5-5-5-5-7-7-7-7-7-7-7-7-5-5-5-5-5-5-5-5|

E|-----------------------------------------------------------------------------|
B|-----------------------------------------------------------------------------|
G|-9-9-9-9-9-9-9-9--9-9-9-9-9-9-9-9-9-9-9-9-9-9-9-9-9-9-9-9-x-9-9-9-9-x-9-9-x-1|  
D|-9-9-9-9-9-9-9-9--9-9-9-9-9-9-9-9-9-9-9-9-9-9-9-9-9-9-9-9-x-9-9-9-9-x-9-9-x-2|   
A|-7-7-7-7-7-7-7-7/67-7-7-7-7-7-7-7-7-7-7-7-7-7-7-7-7-7-7-7-x-7-7-7-7-x-7-7-x-2|
E|------------------5-5-5-5-5-5-5-5-7-7-7-7-7-7-7-7-5-5-5-5-x-5-5-5-5-x-5-5-x-0|
                  outro continued


Yeah so that is it. If you get confused just watch the video and play along with it. later    

Added On December 4th, 2013

SHARE

Comments

blog comments powered by Disqus

ADVERTISEMENT