Editors Tabs

Bullets

3 versions

TAB

            Bullets Tab by Editors


-------------------------------------------------------------------------------
			     Bullets - Editors
-------------------------------------------------------------------------------
Tabbed by: DT
Email: alex_turner30@hotmail.com

Tuning: EADGBe

Chorus
“You don’t need this disease, you don’t, you don’t…”
e|---19-19-19-21-21-21-16-16-17-17-17-16-16-16-17-17---------------------------|
B|-----------------------------------------------------------------------------|
G|-----------------------------------------------------------------------------|
D|-----------------------------------------------------------------------------|
A|-----------------------------------------------------------------------------|
E|--[-7-7-7-9-9-9-4-4-5-5-5-4-4-4-5-5 ]--(Base guitar)-------------------------|
Verse
e|-----------------------------------------------------------------------------|
B|------7--7--7--7-------------------------------------------------------------|
G|------4--4--4--4---(repeat)--------------------------------------------------|
D|-----------------------------------------------------------------------------|
A|-----------------------------------------------------------------------------|
E|----[7-(x8)-4-(x8)-5-(x16)]--------------------------------------------------|
Other bit in Verse
“You don’t need this disease, not right now…”
e|-----------------------------------------------------------------------------|
B|-----------------------------------------------------------------------------|
G|-----------------------------------------------------------------------------|
D|-----------------------------------------------------------------------------|
A|---13-(x8)--9-(x8)--11-(x8)-(accentuate with the rhythm)---------------------|
E|-----------------------------------------------------------------------------|

Break bit
e|-------7---7---7---7---11---11---11---11-------------------------------------|
B|----9---9---9---9---9----9----9----9-----------------------------------------|
G|-----------------------------------------------------------------------------|
D|-----------------------------------------------------------------------------|
A|-----------------------------------------------------------------------------|
E|-----------------------------------------------------------------------------|
This not gets hit after a few parts of the above
e|-----------------------------------------------------------------------------|
B|----------------------------7---7---7---7------------------------------------|
G|-----------------------------------------------------------------------------|
D|-----------------------------------------------------------------------------|
A|-----------------------------------------------------------------------------|
E|-----------------------------------------------------------------------------|
And the Bass goes
e|-----------------------------------------------------------------------------|
B|-----------------------------------------------------------------------------|
G|-----------------------------------------------------------------------------|
D|-----------------------------------------------------------------------------|
A|--------------------7-7------(repeat)----------------------------------------|
E|-----4-4-4-5-5-5-------------------------------------------------------------|


That’s all the parts, just play them at the appropriate time.

| /  slide up
| \  slide down
| h  hammer-on
| p  pull-off
| ~  vibrato
| +  harmonic
| x  Mute note
===============================================================================    

Added On December 4th, 2013

SHARE

Comments

blog comments powered by Disqus

VERSIONS

ADVERTISEMENT