Eels Tabs

Novacaine For The Soul

1 versions

TAB

            I'm saying right now, this won't be perfect, but it's pretty close.

Note:  He uses a capo on the 9th fret for this song.

|----------------------------|
|-------9-----------10-------|
|-------10----10s11----11----|      2 times
|----11----11-------------11-|
|-11-------------------------|
|----------------------------|

|-----------------------------------------------|
|------12-------11-------------9-----9--------9-|
|---11----11-------11----------10----10-------10|
|-9----------11-------11----11----11----11------|
|------------------------11----------------11---|
|-----------------------------------------------|

|------------------------------------|
|------12-------11-------------9-----|
|---11----11-------11----------10----|
|-9----------11-------11----11----11-|
|------------------------11----------|
|------------------------------------|

|----------------------------|
|-------9-----------10-------|
|-------10----10s11----11----|      6 times
|----11----11-------------11-|
|-11-------------------------|
|----------------------------|

|---------------------------------------------------|
|------12----------11----------9--------9-----9-----|
|---11----11----11----11-------10-------10----10----|      2 times
|-9----------11-------------11----11-------11----11-|
|------------------------11-------------------------|
|---------------------------------------------------|

|------------------------|
|------12----------11----|
|---11----11----11----11-|
|-9----------11----------|
|------------------------|
|------------------------|

|-----------------------------------------|
|-----9-----12------------11----9---------|
|---9---9------11------11----11---10----10|       2 times
|-9-------9-------9-11---------------11---|
|-----------------------------------------|
|-----------------------------------------|

|------12----11------------------------------|
|---------12----12----12-------11----9-------|
|---11-------------11-------11----11---10----|
|-9----------------------11---------------11-|
|--------------------------------------------|
|--------------------------------------------|

|---------------------------------------------|
|---------------------------------------------|
|---------------------------------------------|
|-------9----------9----------9----------9----|
|----11---11----11---11----11---11----11---11-|
|-12---------12---------12---------12---------|

Solo (he uses some pretty crazy effects, but I think this is pretty close)

|-------------12-12-12-12-12-11-9-11-12-11-9-12-----------------|
|-------------11-11-11-11-11-11-9-11-11-11-9-11-----12b14r12b14-|
|-------------11-11-11-11-11-11-9-11-11-11-9-11-----------------|
|-11----11------------------------------------------------------|
|-11----11------------------------------------------------------|
|---------------------------------------------------------------|

|----------------------------|
|-------9-----------10-------|
|-------10----10s11----11----|      4 times
|----11----11-------------11-|
|-11-------------------------|
|----------------------------|

(break)

|--------------------------------------------------|
|------12--------11-------------9-----------9------|
|---11----11--------11----------10----------10-----|      2 times
|-9-----------11-------11----11----11----11----11--|
|-------------------------11----------11-----------|
|--------------------------------------------------|

|------11----------9-----------9--------9-------|
|------12----------11----------9--------9-------|
|---11----11----11----11----10---10--10---10----|        5 times
|-9----------11----------11---------11-------11-|
|-----------------------------------------------|
|-----------------------------------------------|

The End

He varies the rhythm a couple of times during the verses and chorus, but this will at 
get you started.

Enjoy! - PoorCollegeKid    

Added On December 16th, 2013

SHARE

Comments

blog comments powered by Disqus

ADVERTISEMENT