Eisregen Tabs

Blutbahnen

1 versions

TAB

            Interpret: Eisregen
Tuning: A step Down


Riff 1/Intro:

(background)
d|------------------------------------------|
a|------------------------------------------|
g|------------------------------------------|
C|----------------(9)-----------------------|
G|-(0)----(3)-(2)------(0)----(3)-(2)--(7)--|
D|------------------------------------------|


Riff 2

d|-----------------------------------------|
a|-----------------------------------------|
g|--------------------7-77-77-777-5---5555-|
C|-3-3-3-3-3-2---2222-7-77-77-777-5---5555-|
G|-3-3-3-3-3-2---2222-5-55-55-555-3---3333-|
D|-1-1-1-1-1-0---0000-5-55-55-555-3---3333-|
PM              ...    .  .  . .    ...


Up to Chorus:

d|-----|
a|-----|
g|-----|
C|-----|
G|-(7)-|
D|-----|


Chorus

d|----------------------|
a|----------------------|
g|------------4-4-44444-|
C|-7-7-7-7777-4-4-44444-|
G|-7-7-7-7777-2-2-22222-|
D|-5-5-5-5555-2-2-22222-|
PM       ....      ....



figure out yourself    

Added On December 16th, 2013

SHARE

Comments

blog comments powered by Disqus

ADVERTISEMENT