Elefant Tabs

Misfit

4 versions

TAB

            Misfit Tab by Elefant


Title: Misfit
Artist: Elefant
Album: Sunlight Makes Me Paranoid
Year: 2003

[ http://www.elefantweb.com/ ]



Tabbed by: ChEv3lle0001
Email: mar43@pitt.edu

This is my first tab ever and I picked it up by ear.
So go easy on me, but it should be close enough to 
get you in the ballpark. There's only one guitarist
in the band but the CD has a few leads over the top 
on this track, so theres actually two guitars.


Tuning: Standard (E A D G B e)

Verse - very light distortion
e-------------------------------------------------------------------
B-------------------------------------------------------------------
G-------------------------------------------------------------------
D-12--------------------------------12-12---------------------------
A-10--10-10--11--11-11-11-11\13-13--10-10--10-10--11-11-11-11-11\13-
E------8--8---9---9--9--9--9\11-11----------8--8---9--9--9--9--9\10-


Chorus - distortion
e----------------------------------------------------------------
B----------------------------------------------------------------
G----------------------------------------------------------------
D-13-13-13-13-13-13-13-13-12-12-12-12-12-12-12-12----------------
A-10-10-10-10-10-10-10-10-10-10-10-10-10-10-10-10----------------
E----------------------------------------------------------------

e----------------------------------------------------------------
B----------------------------------------------------------------
G----------------------------------------------------------------
D-10-10-10-10-10-10-10-10-12-12-12-12-10-10-12-12----------------
A-10-10-10-10-10-10-10-10-10-10-10-10-10-10-10-10----------------
E----------------------------------------------------------------




Lead - light distortion
e----------------------------------------------------------------
B----------------------------------------------------------------
G----------------------------------------------------------------
D----------------------------------------------------------------
A--10-10-8-8-6-6-----------8-8--8^(slow bend)v-------------------
E----------------------------------------------------------------




Bridge - clean
(arpeggio this chord)
e-------
B--12---
G--12---
D--12---
A--10---
E-------

while background playing these chords - distorted
(You'll have to listen to the CD to get the rythm)

e-----------------------------
B-----------------------------
G-----------------------------
D-12----------12-12-----------
A-10--10-10---10-10--10-10----
E------8--8-----------8--8----





Playing Order
_________________
Verse x6

Chorus x4

Verse W/Lead x4

Chorus x4

Bridge x 4

Chorus x 4    

Added On December 4th, 2013

SHARE

Comments

blog comments powered by Disqus

VERSIONS

ADVERTISEMENT