Ensiferum Tabs

Slayer Of Light

4 versions

TAB

            Slayer Of Light Tab by Ensiferum


Ensiferum   
Slayer Of Light                                 

 



     E  E.  S S S S S S S S S S S    E  E.  S S S S S S S S S S S  
E||-------------------------------|-------------------------------|
B||-------------------------------|-------------------------------|
G||-------------------------------|-------------------------------|
D||--2----------------------------|-------------------------------|
A||--2----------------------------|-------------------------------|
E||--0--0---0-0-0-0-0-0-0-0-0-0-0-|--0--0---0-0-0-0-0-0-0-0-0-0-0-|


  E  E.  S S S S S S S S S S S    Q    Q    Q    Q     
-------------------------------|----------------------|
-------------------------------|----------------------|
-------------------------------|----------------------|
-------------------------------|--2----5----6----5----|
-------------------------------|--2----5----6----5----|
--0--0---0-0-0-0-0-0-0-0-0-0-0-|--0----3----4----3----|


  E  E.  S S S S S S S S S S S    E  E.  S S S S S S S S S S S  
-------------------------------|-------------------------------|
-------------------------------|-------------------------------|
-------------------------------|-------------------------------|
--2----------------------------|-------------------------------|
--2----------------------------|-------------------------------|
--0--0---0-0-0-0-0-0-0-0-0-0-0-|--0--0---0-0-0-0-0-0-0-0-0-0-0-|


  E  E.  S S S S S S S S S S S    Q    Q    Q    Q     
-------------------------------|----------------------|
-------------------------------|----------------------|
-------------------------------|----------------------|
-------------------------------|--2----5----6----5----|
-------------------------------|--2----5----6----5----|
--0--0---0-0-0-0-0-0-0-0-0-0-0-|--0----3----4----3----|


  E  E.  S S S S S S S S S S S    E  E.  S S S S S S S S S S S  
-------------------------------|-------------------------------|
-------------------------------|-------------------------------|
-------------------------------|-------------------------------|
--2----------------------------|-------------------------------|
--2----------------------------|-------------------------------|
--0--0---0-0-0-0-0-0-0-0-0-0-0-|--0--0---0-0-0-0-0-0-0-0-0-0-0-|


  E  E.  S S S S S S S S S S S    Q    Q    Q    Q     
-------------------------------|----------------------|
-------------------------------|----------------------|
-------------------------------|----------------------|
-------------------------------|--2----5----6----5----|
-------------------------------|--2----5----6----5----|
--0--0---0-0-0-0-0-0-0-0-0-0-0-|--0----3----4----3----|


  E  E.  S S S S S S S S S S S    E  E.  S S S S S S S S S S S  
-------------------------------|-------------------------------|
-------------------------------|-------------------------------|
-------------------------------|-------------------------------|
--2----------------------------|-------------------------------|
--2----------------------------|-------------------------------|
--0--0---0-0-0-0-0-0-0-0-0-0-0-|--0--0---0-0-0-0-0-0-0-0-0-0-0-|


  E  E.  S S S S S S S S S S S    Q    Q    Q    Q     
-------------------------------|----------------------|
-------------------------------|----------------------|
-------------------------------|----------------------|
-------------------------------|--2----5----6----5----|
-------------------------------|--2----5----6----5----|
--0--0---0-0-0-0-0-0-0-0-0-0-0-|--0----3----4----3----|


  E  E.  S S S S S S S S S S S    E  E.  S S S S S S S S S S S  
-------------------------------|-------------------------------|
-------------------------------|-------------------------------|
-------------------------------|-------------------------------|
--2----------------------------|-------------------------------|
--2----------------------------|-------------------------------|
--0--0---0-0-0-0-0-0-0-0-0-0-0-|--0--0---0-0-0-0-0-0-0-0-0-0-0-|


  E  E.  S S S S S S S S S S S    Q    Q    Q    Q     
-------------------------------|----------------------|
-------------------------------|----------------------|
-------------------------------|----------------------|
-------------------------------|--2----5----6----5----|
-------------------------------|--2----5----6----5----|
--0--0---0-0-0-0-0-0-0-0-0-0-0-|--0----3----4----3----|


  E  E.  S S S S S S S S S S S    E  E.  S S S S S S S S S S S  
-------------------------------|-------------------------------|
-------------------------------|-------------------------------|
-------------------------------|-------------------------------|
--2----------------------------|-------------------------------|
--2----------------------------|-------------------------------|
--0--0---0-0-0-0-0-0-0-0-0-0-0-|--0--0---0-0-0-0-0-0-0-0-0-0-0-|


  E  E.  S S S S S S S S S S S    Q    Q    Q    Q             
-------------------------------|----------------------|-------|
-------------------------------|----------------------|-------|
-------------------------------|----------------------|-------|
-------------------------------|--7----5----2----5----|-------|
-------------------------------|--7----5----2----5----|-------|
--0--0---0-0-0-0-0-0-0-0-0-0-0-|--5----3----0----3----|-------|


  E  S S S S S S S S S S S S S S    E  S S S S S S E  S S S S S S  
---------------------------------|--------------------------------|
---------------------------------|--------------------------------|
---------------------------------|--------------------------------|
--2------------------------------|--5--------------7--------------|
--2------------------------------|--5--------------7--------------|
--0--0-0-0-0-0-0-0-0-0-0-0-0-0-0-|--3--3-3-3-3-3-3-5--5-5-5-5-5-5-|


  E  S S S S S S S S S S S S S S    E  S S S S S S E  S S S S S S  
---------------------------------|--------------------------------|
---------------------------------|--------------------------------|
---------------------------------|--------------------------------|
--2------------------------------|--7--------------5--------------|
--2------------------------------|--7--------------5--------------|
--0--0-0-0-0-0-0-0-0-0-0-0-0-0-0-|--5--5-5-5-5-5-5-3--3-3-3-3-3-3-|


  E  S S S S S S S S S S S S S S    E  S S S S S S E  S S S S S S  
---------------------------------|--------------------------------|
---------------------------------|--------------------------------|
---------------------------------|--------------------------------|
--2------------------------------|--5--------------7--------------|
--2------------------------------|--5--------------7--------------|
--0--0-0-0-0-0-0-0-0-0-0-0-0-0-0-|--3--3-3-3-3-3-3-5--5-5-5-5-5-5-|


  E  S S S S S S S S S S S S S S    E  S S S S S S E  S S S S S S  
---------------------------------|--------------------------------|
---------------------------------|--------------------------------|
---------------------------------|--------------------------------|
--5------------------------------|--------------------------------|
--3--3-3-3-3-3-3-3-3-3-3-3-3-3-3-|--7--------------5--------------|
---------------------------------|--5--5-5-5-5-5-5-3--3-3-3-3-3-3-|


  E  S S S S S S S S S S S S S S    E  S S S S S S E  S S S S S S  
---------------------------------|--------------------------------|
---------------------------------|--------------------------------|
---------------------------------|--------------------------------|
--2------------------------------|--5--------------7--------------|
--2------------------------------|--5--------------7--------------|
--0--0-0-0-0-0-0-0-0-0-0-0-0-0-0-|--3--3-3-3-3-3-3-5--5-5-5-5-5-5-|


  E  S S S S S S S S S S S S S S    E  S S S S S S E  S S S S S S  
---------------------------------|--------------------------------|
---------------------------------|--------------------------------|
---------------------------------|--------------------------------|
--2------------------------------|--7--------------5--------------|
--2------------------------------|--7--------------5--------------|
--0--0-0-0-0-0-0-0-0-0-0-0-0-0-0-|--5--5-5-5-5-5-5-3--3-3-3-3-3-3-|


  E  S S S S S S S S S S S S S S    E  S S S S S S E  S S S S S S  
---------------------------------|--------------------------------|
---------------------------------|--------------------------------|
---------------------------------|--------------------------------|
--2------------------------------|--5--------------7--------------|
--2------------------------------|--5--------------7--------------|
--0--0-0-0-0-0-0-0-0-0-0-0-0-0-0-|--3--3-3-3-3-3-3-5--5-5-5-5-5-5-|


  E  S S S S S S S S S S S S S S    E  S S S S S S E  S S S S S S  
---------------------------------|--------------------------------|
---------------------------------|--------------------------------|
---------------------------------|--------------------------------|
--5------------------------------|--------------------------------|
--3--3-3-3-3-3-3-3-3-3-3-3-3-3-3-|--7--------------5--------------|
---------------------------------|--5--5-5-5-5-5-5-3--3-3-3-3-3-3-|


  E  S S S S S S Q    Q       E  S S S S S S Q    Q     
---------------------------|---------------------------|
---------------------------|---------------------------|
-----------------2----2----|--5--------------5----5----|
--2--------------2----2----|--5--------------5----5----|
--0--0-0-0-0-0-0-0----0----|--3--3-3-3-3-3-3-3----3----|
---------------------------|---------------------------|


  E  S S S S S S E  E  E  E     E  S S S S S S E  E  E  E   
-----------------------------|-----------------------------|
-----------------------------|-----------------------------|
-----------------------------|-----------------------------|
--5-----------------5-----5--|--2--------------2--2--2--2--|
--5-----------------5-----5--|--2--------------2--2--2--2--|
--3--3-3-3-3-3-3-3--3--3--3--|--0--0-0-0-0-0-0-0--0--0--0--|


  E  S S S S S S Q    Q       E  S S S S S S Q    Q     
---------------------------|---------------------------|
---------------------------|---------------------------|
-----------------2----2----|--5--------------5----5----|
--2--------------2----2----|--5--------------5----5----|
--0--0-0-0-0-0-0-0----0----|--3--3-3-3-3-3-3-3----3----|
---------------------------|---------------------------|


  E  S S S S S S E  E  E  E     E  S S S S S S E  E  E  E   
-----------------------------|-----------------------------|
-----------------------------|-----------------------------|
-----------------------------|-----------------------------|
--5-----------------5-----5--|--2--------------2--2--2--2--|
--5-----------------5-----5--|--2--------------2--2--2--2--|
--3--3-3-3-3-3-3-3--3--3--3--|--0--0-0-0-0-0-0-0--0--0--0--|


  E  S S S S S S Q    Q       E  S S S S S S Q    Q     
---------------------------|---------------------------|
---------------------------|---------------------------|
-----------------2----2----|--5--------------5----5----|
--2--------------2----2----|--5--------------5----5----|
--0--0-0-0-0-0-0-0----0----|--3--3-3-3-3-3-3-3----3----|
---------------------------|---------------------------|


  E  S S S S S S E  E  E  E     E  S S S S S S E  E  E  E   
-----------------------------|-----------------------------|
-----------------------------|-----------------------------|
-----------------------------|-----------------------------|
--5-----------------5-----5--|--2--------------2--2--2--2--|
--5-----------------5-----5--|--2--------------2--2--2--2--|
--3--3-3-3-3-3-3-3--3--3--3--|--0--0-0-0-0-0-0-0--0--0--0--|


  E  S S S S S S Q    Q       E  S S S S S S Q    Q     
---------------------------|---------------------------|
---------------------------|---------------------------|
-----------------2----2----|--5--------------5----5----|
--2--------------2----2----|--5--------------5----5----|
--0--0-0-0-0-0-0-0----0----|--3--3-3-3-3-3-3-3----3----|
---------------------------|---------------------------|


  E  S S S S S S E  E  E  E     E  S S S S S S E  E  E  E   
-----------------------------|-----------------------------|
-----------------------------|-----------------------------|
-----------------------------|-----------------------------|
--5-----------------5-----5--|--2--------------2--2--2--2--|
--5-----------------5-----5--|--2--------------2--2--2--2--|
--3--3-3-3-3-3-3-3--3--3--3--|--0--0-0-0-0-0-0-0--0--0--0--|


  E  E  Q    E  E  Q       E  E  E  E  Q    Q     
------------------------|------------------------|
------------------------|------------------------|
------------------------|------------------------|
------------------------|------------------------|
--2--3-------2--3-------|--2--3--2--3--7----5----|
--0--1-------0--1-------|--0--1--0--1--5----3----|


  E  E.  S S S S S S S S S S S    E  E.  S S S S S S S S S S S  
-------------------------------|-------------------------------|
-------------------------------|-------------------------------|
-------------------------------|-------------------------------|
--2----------------------------|-------------------------------|
--2----------------------------|-------------------------------|
--0--0---0-0-0-0-0-0-0-0-0-0-0-|--0--0---0-0-0-0-0-0-0-0-0-0-0-|


  E  E.  S S S S S S S S S S S    Q    Q    Q    Q     
-------------------------------|----------------------|
-------------------------------|----------------------|
-------------------------------|----------------------|
-------------------------------|--2----5----6----5----|
-------------------------------|--2----5----6----5----|
--0--0---0-0-0-0-0-0-0-0-0-0-0-|--0----3----4----3----|


  E  E.  S S S S S S S S S S S    E  E.  S S S S S S S S S S S  
-------------------------------|-------------------------------|
-------------------------------|-------------------------------|
-------------------------------|-------------------------------|
--2----------------------------|-------------------------------|
--2----------------------------|-------------------------------|
--0--0---0-0-0-0-0-0-0-0-0-0-0-|--0--0---0-0-0-0-0-0-0-0-0-0-0-|


  E  E.  S S S S S S S S S S S    Q    Q    Q    Q     
-------------------------------|----------------------|
-------------------------------|----------------------|
-------------------------------|----------------------|
-------------------------------|--7----5----2----5----|
-------------------------------|--7----5----2----5----|
--0--0---0-0-0-0-0-0-0-0-0-0-0-|--5----3----0----3----|


  E  S S S S S S E  S S S S S S    E  S S S S S S E  S S S S S S  
--------------------------------|--------------------------------|
--------------------------------|--------------------------------|
--------------------------------|--------------------------------|
--2--------------4--------------|--5--------------4--------------|
--------------------------------|--------------------------------|
-----0-0-0-0-0-0----0-0-0-0-0-0-|-----0-0-0-0-0-0----0-0-0-0-0-0-|


   E  S S S S S S  E  S S S S S S    E  S S S S S S  E  S S S S S S  
----------------------------------|---------------------------------|
----------------------------------|---------------------------------|
----------------------------------|---------------------------------|
--12--------------10--------------|--9--------------10--------------|
------0-0-0-0-0-0-----0-0-0-0-0-0-|-----0-0-0-0-0-0-----0-0-0-0-0-0-|
----------------------------------|---------------------------------|


  E  S S S S S S E  S S S S S S    E  S S S S S S E  S S S S S S  
--------------------------------|--------------------------------|
--------------------------------|--------------------------------|
--------------------------------|--------------------------------|
--2--------------4--------------|--5--------------4--------------|
--------------------------------|--------------------------------|
-----0-0-0-0-0-0----0-0-0-0-0-0-|-----0-0-0-0-0-0----0-0-0-0-0-0-|


   E  S S S S S S  E  S S E  S S     E  S S  E   E  E   E  E   E   
---------------------------------|--------------------------------|
---------------------------------|--------------------------------|
---------------------------------|--------------------------------|
--12--------------10------9------|------------------9--10--9------|
------0-0-0-0-0-0-----0-0----0-0-|--12--0-0-10--12------------12--|
---------------------------------|--------------------------------|


  E  S S S S S S E  S S S S S S    E  S S E  E  E  S S S S S S  
--------------------------------|------------------------------|
--------------------------------|------------------------------|
--------------------------------|------------------------------|
--2--------------4--------------|--5------4--5--4--------------|
--------------------------------|------------------------------|
-----0-0-0-0-0-0----0-0-0-0-0-0-|-----0-0----------0-0-0-0-0-0-|


   E  S S  E   E   E  S S S S S S    E  S S S S S S  E  S S S S S S  
----------------------------------|---------------------------------|
----------------------------------|---------------------------------|
----------------------------------|---------------------------------|
--12------10--12--10--------------|--9--------------10--------------|
------0-0-------------0-0-0-0-0-0-|-----0-0-0-0-0-0-----0-0-0-0-0-0-|
----------------------------------|---------------------------------|


  E  S S S S S S E  S S S S S S    E  S S E  E  E  S S S S S S  
--------------------------------|------------------------------|
--------------------------------|------------------------------|
--------------------------------|------------------------------|
--2--------------4--------------|--5------4--5--4--------------|
--------------------------------|------------------------------|
-----0-0-0-0-0-0----0-0-0-0-0-0-|-----0-0----------0-0-0-0-0-0-|


   E  S S S S S S  E  S S E  S S     E  S S  E   E  E   E  E   E   
---------------------------------|--------------------------------|
---------------------------------|--------------------------------|
---------------------------------|--------------------------------|
--12--------------10------9------|------------------9--10--9------|
------0-0-0-0-0-0-----0-0----0-0-|--12--0-0-10--12------------12--|
---------------------------------|--------------------------------|


  S S S S S S S S Q    Q       S S S S S S S S Q    Q     
----------------------------|----------------------------|
----------------------------|----------------------------|
------------------2----2----|------------------5----5----|
------------------2----2----|------------------5----5----|
------------------0----0----|------------------3----3----|
--0-0-0-0-0-0-0-0-----------|--3-3-3-3-3-3-3-3-----------|


  S S S S S S S S E  E  E    E     E  S S S S S S S S S S S S S S  
--------------------------------|---------------------------------|
--------------------------------|---------------------------------|
------------------5-------------|---------------------------------|
------------------7-------------|--5------------------------------|
------------------7--0-----0--|--5------------------------------|
--5-5-5-5-5-5-5-5-5-----3-------|--3--3-3-3-3-3-3-0-0-0-0-0-0-0-0-|


  Q    H        S S S S    E  S S S S S S E  S S S S S S  
------------------------|--------------------------------|
------------------------|--------------------------------|
------------------------|--------------------------------|
------------------------|--5--------------2--------------|
--2----2----------------|--5--------------2--------------|
--0----0--------0-0-0-0-|--3--3-3-3-3-3-3-0--0-0-0-0-0-0-|


  E  S S S S S S E  S S S S S S    Q    E  E  E  E  E  E   
--------------------------------|-------------------------|
--------------------------------|-------------------------|
--5-----------------------------|-------------------0--0--|
--7--------------5--------------|--2----2--2--2--2--2--2--|
--7--------------5--------------|--2----2--2--2--2--2--2--|
--5--5-5-5-5-5-5-3--3-3-3-3-3-3-|--0----0--0--0--0--0--0--|


  S S S S S S S S Q    Q       S S S S S S S S Q    Q     
----------------------------|----------------------------|
----------------------------|----------------------------|
------------------2----2----|------------------5----5----|
------------------2----2----|------------------5----5----|
------------------0----0----|------------------3----3----|
--0-0-0-0-0-0-0-0-----------|--3-3-3-3-3-3-3-3-----------|


  S S S S S S S S E  E  E    E     E  S S S S S S S S S S S S S S  
--------------------------------|---------------------------------|
--------------------------------|---------------------------------|
------------------5-------------|---------------------------------|
------------------7-------------|--5------------------------------|
------------------7--0-----0--|--5------------------------------|
--5-5-5-5-5-5-5-5-5-----3-------|--3--3-3-3-3-3-3-0-0-0-0-0-0-0-0-|


  Q    H        S S S S    E  S S S S S S E  S S S S S S  
------------------------|--------------------------------|
------------------------|--------------------------------|
------------------------|--------------------------------|
------------------------|--5--------------2--------------|
--2----2----------------|--5--------------2--------------|
--0----0--------0-0-0-0-|--3--3-3-3-3-3-3-0--0-0-0-0-0-0-|


  E  S S S S S S E  S S S S S S    Q    E  E  E  E  E  E   
--------------------------------|-------------------------|
--------------------------------|-------------------------|
--5-----------------------------|-------------------0--0--|
--7--------------5--------------|--2----2--2--2--2--2--2--|
--7--------------5--------------|--2----2--2--2--2--2--2--|
--5--5-5-5-5-5-5-3--3-3-3-3-3-3-|--0----0--0--0--0--0--0--|


  E  E  E  E  E  E  E  E     E  E  E  E  E  E  E  E   
--------------------------|--------------------------|
--------------------------|--------------------------|
--------------------------|--------------------------|
--------------------------|--------------------------|
--2--2-----2--2--2-----2--|--2--2-----2--2--2-----2--|
--0--0-----0--0--0-----0--|--0--0-----0--0--0-----0--|


  E  E.  S S S S S S S S S S S    E  E.  S S S S S S S S S S S  
-------------------------------|-------------------------------|
-------------------------------|-------------------------------|
-------------------------------|-------------------------------|
--2----------------------------|-------------------------------|
--2----------------------------|-------------------------------|
--0--0---0-0-0-0-0-0-0-0-0-0-0-|--0--0---0-0-0-0-0-0-0-0-0-0-0-|


  E  E  E  E  E  E  E  E     E  E  E  E  E  E  E  E   
--------------------------|--------------------------|
--------------------------|--------------------------|
--------------------------|--------------------------|
--------------------------|--------------------------|
--2--2-----2--2--2-----2--|--2--2-----2--2--2-----2--|
--0--0-----0--0--0-----0--|--0--0-----0--0--0-----0--|


  E  E.  S S S S S S S S S S S    E  E.  S S S S S S S S S S S  
-------------------------------|-------------------------------|
-------------------------------|-------------------------------|
-------------------------------|-------------------------------|
--2----------------------------|-------------------------------|
--2----------------------------|-------------------------------|
--0--0---0-0-0-0-0-0-0-0-0-0-0-|--0--0---0-0-0-0-0-0-0-0-0-0-0-|


  E  E  E  E  E  E  E  E     E  E  E  E  E  E  E  E   
--------------------------|--------------------------|
--------------------------|--------------------------|
--------------------------|--------------------------|
--------------------------|--------------------------|
--2--2-----2--2--2-----2--|--2--2-----2--2--2-----2--|
--0--0-----0--0--0-----0--|--0--0-----0--0--0-----0--|


  E  E.  S S S S S S S S S S S    E  E.  S S S S S S S S S S S  
-------------------------------|-------------------------------|
-------------------------------|-------------------------------|
-------------------------------|-------------------------------|
--2----------------------------|-------------------------------|
--2----------------------------|-------------------------------|
--0--0---0-0-0-0-0-0-0-0-0-0-0-|--0--0---0-0-0-0-0-0-0-0-0-0-0-|


  E  E  E  E  E  E  E  E     E  E  E  E  E  E  E  E   
--------------------------|--------------------------|
--------------------------|--------------------------|
--------------------------|--------------------------|
--------------------------|--------------------------|
--2--2-----2--2--2-----2--|--2--2-----2--2--2-----2--|
--0--0-----0--0--0-----0--|--0--0-----0--0--0-----0--|


  E  E.  S S S S S S S S S S S    E  E.  S S S S S S S S S S S  
-------------------------------|-------------------------------|
-------------------------------|-------------------------------|
-------------------------------|-------------------------------|
--2----------------------------|-------------------------------|
--2----------------------------|-------------------------------|
--0--0---0-0-0-0-0-0-0-0-0-0-0-|--0--0---0-0-0-0-0-0-0-0-0-0-0-|


  E  S S S S S S S S S S S S S S    E  S S S S S S E  S S S S S S  
---------------------------------|--------------------------------|
---------------------------------|--------------------------------|
---------------------------------|--------------------------------|
--2------------------------------|--5--------------7--------------|
--2------------------------------|--5--------------7--------------|
--0--0-0-0-0-0-0-0-0-0-0-0-0-0-0-|--3--3-3-3-3-3-3-5--5-5-5-5-5-5-|


  E  S S S S S S S S S S S S S S    E  S S S S S S E  S S S S S S  
---------------------------------|--------------------------------|
---------------------------------|--------------------------------|
---------------------------------|--------------------------------|
--2------------------------------|--7--------------5--------------|
--2------------------------------|--7--------------5--------------|
--0--0-0-0-0-0-0-0-0-0-0-0-0-0-0-|--5--5-5-5-5-5-5-3--3-3-3-3-3-3-|


  E  S S S S S S S S S S S S S S    E  S S S S S S E  S S S S S S  
---------------------------------|--------------------------------|
---------------------------------|--------------------------------|
---------------------------------|--------------------------------|
--2------------------------------|--5--------------7--------------|
--2------------------------------|--5--------------7--------------|
--0--0-0-0-0-0-0-0-0-0-0-0-0-0-0-|--3--3-3-3-3-3-3-5--5-5-5-5-5-5-|


  E  S S S S S S S S S S S S S S    E  S S S S S S E  S S S S S S  
---------------------------------|--------------------------------|
---------------------------------|--------------------------------|
---------------------------------|--------------------------------|
--5------------------------------|--------------------------------|
--3--3-3-3-3-3-3-3-3-3-3-3-3-3-3-|--7--------------5--------------|
---------------------------------|--5--5-5-5-5-5-5-3--3-3-3-3-3-3-|


  E  S S S S S S Q    Q       E  S S S S S S Q    Q     
---------------------------|---------------------------|
---------------------------|---------------------------|
-----------------2----2----|--5--------------5----5----|
--2--------------2----2----|--5--------------5----5----|
--0--0-0-0-0-0-0-0----0----|--3--3-3-3-3-3-3-3----3----|
---------------------------|---------------------------|


  E  S S S S S S E  E  E  E     E  S S S S S S E  E  E  E   
-----------------------------|-----------------------------|
-----------------------------|-----------------------------|
-----------------------------|-----------------------------|
--5-----------------5-----5--|--2--------------2--2--2--2--|
--5-----------------5-----5--|--2--------------2--2--2--2--|
--3--3-3-3-3-3-3-3--3--3--3--|--0--0-0-0-0-0-0-0--0--0--0--|


  E  S S S S S S Q    Q       E  S S S S S S Q    Q     
---------------------------|---------------------------|
---------------------------|---------------------------|
-----------------2----2----|--5--------------5----5----|
--2--------------2----2----|--5--------------5----5----|
--0--0-0-0-0-0-0-0----0----|--3--3-3-3-3-3-3-3----3----|
---------------------------|---------------------------|


  E  S S S S S S E  E  E  E     E  S S S S S S E  E  E  E   
-----------------------------|-----------------------------|
-----------------------------|-----------------------------|
-----------------------------|-----------------------------|
--5-----------------5-----5--|--2--------------2--2--2--2--|
--5-----------------5-----5--|--2--------------2--2--2--2--|
--3--3-3-3-3-3-3-3--3--3--3--|--0--0-0-0-0-0-0-0--0--0--0--|


  E  S S S S S S Q    Q       E  S S S S S S Q    Q     
---------------------------|---------------------------|
---------------------------|---------------------------|
-----------------2----2----|--5--------------5----5----|
--2--------------2----2----|--5--------------5----5----|
--0--0-0-0-0-0-0-0----0----|--3--3-3-3-3-3-3-3----3----|
---------------------------|---------------------------|


  E  S S S S S S E  E  E  E     E  S S S S S S E  E  E  E   
-----------------------------|-----------------------------|
-----------------------------|-----------------------------|
-----------------------------|-----------------------------|
--5-----------------5-----5--|--2--------------2--2--2--2--|
--5-----------------5-----5--|--2--------------2--2--2--2--|
--3--3-3-3-3-3-3-3--3--3--3--|--0--0-0-0-0-0-0-0--0--0--0--|


  E  S S S S S S Q    Q       E  S S S S S S Q    Q     
---------------------------|---------------------------|
---------------------------|---------------------------|
-----------------2----2----|--5--------------5----5----|
--2--------------2----2----|--5--------------5----5----|
--0--0-0-0-0-0-0-0----0----|--3--3-3-3-3-3-3-3----3----|
---------------------------|---------------------------|


  E  S S S S S S E  E  E  E     E  S S S S S S E  E  E  E   
-----------------------------|-----------------------------|
-----------------------------|-----------------------------|
-----------------------------|-----------------------------|
--5-----------------5-----5--|--2--------------2--2--2--2--|
--5-----------------5-----5--|--2--------------2--2--2--2--|
--3--3-3-3-3-3-3-3--3--3--3--|--0--0-0-0-0-0-0-0--0--0--0--|


  E  E  Q    E  E  Q       E  E  E  E  Q    Q     
------------------------|------------------------|
------------------------|------------------------|
------------------------|------------------------|
------------------------|------------------------|
--2--3-------2--3-------|--2--3--2--3--7----5----|
--0--1-------0--1-------|--0--1--0--1--5----3----|


  E  E.  S S S S S S S S S S S    E  E.  S S S S S S S S S S S  
-------------------------------|-------------------------------|
-------------------------------|-------------------------------|
-------------------------------|-------------------------------|
--2----------------------------|-------------------------------|
--2----------------------------|-------------------------------|
--0--0---0-0-0-0-0-0-0-0-0-0-0-|--0--0---0-0-0-0-0-0-0-0-0-0-0-|


  E  E.  S S S S S S S S S S S    Q    Q    Q    Q     
-------------------------------|----------------------|
-------------------------------|----------------------|
-------------------------------|----------------------|
-------------------------------|--2----5----6----5----|
-------------------------------|--2----5----6----5----|
--0--0---0-0-0-0-0-0-0-0-0-0-0-|--0----3----4----3----|


  E  E.  S S S S S S S S S S S    E  E.  S S S S S S S S S S S  
-------------------------------|-------------------------------|
-------------------------------|-------------------------------|
-------------------------------|-------------------------------|
--2----------------------------|-------------------------------|
--2----------------------------|-------------------------------|
--0--0---0-0-0-0-0-0-0-0-0-0-0-|--0--0---0-0-0-0-0-0-0-0-0-0-0-|


  E  E.  S S S S S S S S S S S    Q    Q    Q    Q     
-------------------------------|----------------------|
-------------------------------|----------------------|
-------------------------------|----------------------|
-------------------------------|--7----5----2----5----|
-------------------------------|--7----5----2----5----|
--0--0---0-0-0-0-0-0-0-0-0-0-0-|--5----3----0----3----|


  E  E.  S S S S S S S S S S S    E  E.  S S S S S S S S S S S  
-------------------------------|-------------------------------|
-------------------------------|-------------------------------|
-------------------------------|-------------------------------|
--2----------------------------|-------------------------------|
--2----------------------------|-------------------------------|
--0--0---0-0-0-0-0-0-0-0-0-0-0-|--0--0---0-0-0-0-0-0-0-0-0-0-0-|


  E  E.  S S S S S S S S S S S    Q    Q    Q    Q     
-------------------------------|----------------------|
-------------------------------|----------------------|
-------------------------------|----------------------|
-------------------------------|--2----5----6----5----|
-------------------------------|--2----5----6----5----|
--0--0---0-0-0-0-0-0-0-0-0-0-0-|--0----3----4----3----|


  E  E.  S S S S S S S S S S S    E  E.  S S S S S S S S S S S  
-------------------------------|-------------------------------|
-------------------------------|-------------------------------|
-------------------------------|-------------------------------|
--2----------------------------|-------------------------------|
--2----------------------------|-------------------------------|
--0--0---0-0-0-0-0-0-0-0-0-0-0-|--0--0---0-0-0-0-0-0-0-0-0-0-0-|


  E  E.  S S S S S S S S S S S    Q    Q    Q    Q              
-------------------------------|----------------------|-------||
-------------------------------|----------------------|-------||
-------------------------------|----------------------|-------||
-------------------------------|--7----5----2----5----|-------||
-------------------------------|--7----5----2----5----|-------||
--0--0---0-0-0-0-0-0-0-0-0-0-0-|--5----3----0----3----|-------||




Duration Legend
---------------
W - whole
H - half
Q - quarter
E - 8th
S - 16th
T - 32nd
X - 64th
. - note dotted
|-n-|  - n-tuplets


Tablature Legend
----------------
L - tied note
x - dead note
g - grace note
(n) - ghost note
> - accentuded note
NH - natural harmonic
AH - artificial harmonic
TH - tapped harmonic
SH - semi harmonic
PH - pitch harmonic
h - hammer on
p - pull off
b - bend
br - bendRelease
pb - preBend
pbr - preBendRelease
brb - bendReleaseBend
\n/ - tremolo bar dip
\n - tremolo bar dive
-/n - tremolo bar Release up
/n\ - tremolo bar inverted dip
/n - tremolo bar return
-\n - tremolo bar Release down
S - shift slide
s - legato slide
/ -  slide into from below or out of upwards
\ -  slide into from above or out of downwards
~ - vibrato
W - wide vibrato
tr - trill
TP - tremolo picking
T - tapping
S - slap
P - pop
< - fade in
^ - brush up
v - brush down    

Added On December 4th, 2013

SHARE

Comments

blog comments powered by Disqus

VERSIONS

ADVERTISEMENT