Enter Shikari Tabs

No Sssweat

2 versions

TAB

            -------------------------------------------------------------------------------
			     No Sssweat - Enter Shikari
-------------------------------------------------------------------------------
Tabbed by: Callum
Email: Calhilly@hotmail.com

Tuning: Drop C

d#|---------------------------------------------------------------------------|
A#|---------------------------------------------------------------------------|
F#|--6-6-6--------------------------------------------------------------------|
C#|--6-6-6---7-7-7-7--10-10-10-10-10-10-10-10---------------------------------|
G#|--4-4-4---7-7-7-7--10-10-10-10-10-10-10-10---------------------------------|
C#|----------7-7-7-7--10-10-10-10-10-10-10-10---------------------------------|
Repeat as many times as necessary, 8 times I think.
Wheres you're respect

d#|---------------------------------------------------------------------------|
A#|---------------------------------------------------------------------------|
F#|--6------------------------------------------------------------------------|
C#|--6---7----10--------------------------------------------------------------|x2
G#|--4---7----10--------------------------------------------------------------|
C#|------7----10--------------------------------------------------------------|

d#|---------------------------------------------------------------------------|
A#|---------------------------------------------------------------------------|
F#|--6-6-6--------------------------------------------------------------------|
C#|--6-6-6---7-7-7-7--6-6-6-6-6-6-6-6-----------------------------------------|
G#|--4-4-4---7-7-7-7--6-6-6-6-6-6-6-6-----------------------------------------|
C#|----------7-7-7-7--6-6-6-6-6-6-6-6-----------------------------------------|
Not even salt can make your hands taste good

d#|---------------------------------------------------------------------------|
A#|---------------------------------------------------------------------------|
F#|--6-6-6--------------------------------------------------------------------|
C#|--6-6-6---7-7-7---10-10-10-10-10-10-10-10----------------------------------|
G#|--4-4-4---7-7-7---10-10-10-10-10-10-10-10----------------------------------|
C#|----------7-7-7---10-10-10-10-10-10-10-10----------------------------------|

d#|---------------------------------------------------------------------------|
A#|---------------------------------------------------------------------------|
F#|--6-6-6--------------------------------------------------------------------|
C#|--6-6-6---7-7-7---6-6-6-6--------------------------------------------------|
G#|--4-4-4---7-7-7---6-6-6-6--------------------------------------------------|
C#|----------7-7-7---6-6-6-6--------------------------------------------------|
You do this every fuckin' time

d#|---------------------------------------------------------------------------|
A#|---------------------------------------------------------------------------|
F#|--6-6-6--------------------------------------------------------------------|
C#|--6-6-6---7-7-7---10-10-10-10-10-10-10-10----------------------------------|
G#|--4-4-4---7-7-7---10-10-10-10-10-10-10-10----------------------------------|
C#|----------7-7-7---10-10-10-10-10-10-10-10----------------------------------|


d#|---------------------------------------------------------------------------|
A#|---------------------------------------------------------------------------|
F#|--6-6-6--------------------------------------------------------------------|
C#|--6-6-6---7-7-7---6-6-6-6--------------------------------------------------|
G#|--4-4-4---7-7-7---6-6-6-6--------------------------------------------------|
C#|----------7-7-7---6-6-6-6--------------------------------------------------|
Lifeline, Lifeline bit
Repeat as many times as necessary 

Back To Intro
d#|---------------------------------------------------------------------------|
A#|---------------------------------------------------------------------------|
F#|--6-6-6--------------------------------------------------------------------|
C#|--6-6-6---7-7-7-7--10-10-10-10-10-10-10-10---------------------------------|
G#|--4-4-4---7-7-7-7--10-10-10-10-10-10-10-10---------------------------------|
C#|----------7-7-7-7--10-10-10-10-10-10-10-10---------------------------------|
Repeat as many times as necessary, 8 times I think.
Wheres you're respect

d#|---------------------------------------------------------------------------|
A#|---------------------------------------------------------------------------|
F#|--6-6-6--------------------------------------------------------------------|
C#|--6-6-6---7-7-7-7--6-6-6-6-6-6-6-6-----------------------------------------|
G#|--4-4-4---7-7-7-7--6-6-6-6-6-6-6-6-----------------------------------------|
C#|----------7-7-7-7--6-6-6-6-6-6-6-6-----------------------------------------|
Not even salt can make your hands taste good


d#|---------------------------------------------------------------------------|
A#|---------------------------------------------------------------------------|
F#|--6-6-6--------------------------------------------------------------------|
C#|--6-6-6---7-7-7---10-10-10-10-10-10-10-10----------------------------------|
G#|--4-4-4---7-7-7---10-10-10-10-10-10-10-10----------------------------------|
C#|----------7-7-7---10-10-10-10-10-10-10-10----------------------------------|

d#|---------------------------------------------------------------------------|
A#|---------------------------------------------------------------------------|
F#|--6-6-6--------------------------------------------------------------------|
C#|--6-6-6---7-7-7---6-6-6-6--------------------------------------------------|
G#|--4-4-4---7-7-7---6-6-6-6--------------------------------------------------|
C#|----------7-7-7---6-6-6-6--------------------------------------------------|
You do this every fuckin' time

d#|---------------------------------------------------------------------------|
A#|---------------------------------------------------------------------------|
F#|--6-6-6--------------------------------------------------------------------|
C#|--6-6-6---7-7-7---10-10-10-10-10-10-10-10------------10--------------------|
G#|--4-4-4---7-7-7---10-10-10-10-10-10-10-10---End on---10------------------|
C#|----------7-7-7---10-10-10-10-10-10-10-10------------10--------------------|


First tab so it's probably guff, but comments are welcome eh.    

Added On December 16th, 2013

SHARE

Comments

blog comments powered by Disqus

VERSIONS

ADVERTISEMENT