Enter Shikari Tabs

Warm Smile Do Not Make You Welcome Here

1 versions

TAB

            (/) Slide Up  (\) Slide Down  (h) Hammer On  (p) Pull Off  (b) Bend (r) Release (v) Vibrato


   Throughout pretty much the entire song
D|----------------------------------------|-----------------------------------------|
A|----------------------------------------|-----------------------------------------|
F|--14~-14/15-15-15-15-15-15-15-15-14-14--|--14~-14/12-12-12-12-12-12-12-12-17-14~--|
C|--14~-14/15-15-15-15-15-15-15-15-14-14--|--14~-14/12-12-12-12-12-12-12-12-17-14~--|
G|--12~-12/13-13-13-13-13-13-13-13-12-12--|--14~-14/15-10-10-10-10-10-10-10-15-12~--|
C|----------------------------------------|-----------------------------------------|

 (from 03:01)
D|---------------------------------------------8-5--|
A|--------------------------------------------------|
F|--------------------------------------------------|
C|--333-----3---------5p3-----00-----5p3-3/5\3------|
G|--333---3-----3h5p3-----5-3-00-5p3----------------|
C|--333-3-----5---------------00--------------------|
    ...                       ..    

Added On December 16th, 2013

SHARE

Comments

blog comments powered by Disqus

ADVERTISEMENT