Eric Johnson Tabs

Cliffs Of Dover

9 versions

TAB

            Cliffs Of Dover Tab by Eric Johnson




cliffs of dover
by: eric johnson
from the album: ah via musicom
tuning:e a d g b e(standard)

^ bends
/ slide up
\ slid down
p pull off
ph pick harmonics

    full                           full                                   full
---15^--15-12-14----12-------12------------12-15-14p12--14-12------------------|
----------------15----12-15---15p12---12-15-----------15-----15p12--15p12------|
-----------------------------------14^----------------------------14-----14^---|
-------------------------------------------------------------------------------|
-------------------------------------------------------------------------------|
-o-----------------------------------------------------------------------------|

      full                                                                 full
----------------------|---5-7-6-5-------------------|---------------------------|
-15p12--------------5-|--8-------8-5-5-7-5-3--------|------------------------8--|
------14^(14)p12--7---|-------------7---4---4p2-4-2-|---------------------------|
----------------14----|------------------------5----|-5-2-5-2---2-0-------------|
----------------------|-----------------------------|----5---5-2---2-0----------|
----------------------|-----------------------------|------------------3---0----|

---------------7--8/10--8----|------------------|------------------------15-15-|
----5----7/8-10-10--------12-|-------12------13-|------15------17------19------|
-----------------------------|------------------|------------------------------|
--7----9---------------------|----14------14----|----17------17-------19-------|
-3----5----------------------|--10------12------|-14-------15-------17---------|
-----------------------------|------------------|------------------------------|

----15--15--15--15--15--15--15--15--15--15--15--15--15--15--15--15--15--15--15-|
--19------------------17--19------------------17--19----------17--19--19-------|
------19----------17----------19----------17----------19--17-------------------|
----------19--17------------------19--17---------------------------------------|
-------------------------------------------------------------------------------|
-------------------------------------------------------------------------------|

-15-19-17-15|----17-15----------------------------------------------------------|
------------|--19-----19-15--17-15----------------------------------------------|
------------|--------------17-----17-14--16-14-------16-14-------16-14----------|
------------|--------------------------17-----17-14-------17-14-------17-14-----|
------------|--------------------------------------17----------17----------17---|
------------|----------------------------------------------------------------15-|

         p.h----------------------|
          full      full
-----------------------------------------|
----------18^-----(18)^-----(18)\--------|
-----------------------------------0-----|
-----------------------------------------|
-----------------------------------------|
-----------------------------------------|

-------------------------------|-----------------7---10-------7-10-------------|
-8------8-----8--------8-------|8-------8------8------8------8-----------------|
--7p0-0--9p0-0--11p0-0---9p0-0-|--7p0-0-----/7--------0---5/7------------------|
-------------------------------|-----------------------------------------------|
-------------------------------|-----------------------------------------------|
-------------------------------|-----------------------------------------------|

                                    |let ring-----------------------------------|
--8---8-------------------------------------------------------------------------|
--8-----10^-8--8-----8------8------8---8----------------------------------------|
--5-----------0-7p0-0-9p0-0--11p0-0-----7---8---8------10-----------------------|
----------------------------------------------0----(0)--------------------------|
--------------------------------------------------------------------------------|
-------------------------------------8----8-------------------------------------|

-10----------12-14----|---------12-|-------------------------------------------|
--8-----12-15-----15--|----10-15---|---------------8-----8-----8------8--------|
--0---12--------------|--12--------|14^-(14)-12-0---7p0-0-9p0-0-11p0-0---------|
----12----------------|10----------|-------------------------------------------|
----------------------|------------|-------------------------------------------|
----------------------|------------|-------------------------------------------|

-------------------------------------------------------------------------------|
-------------------------------------------------------------------------------|
-5--7------------17--14--17\16--12-16\14--11-14--11-12-14/16---12-16\14--11----|
-5--7----14\12/14--14---------12--------12-----12------------12--------12------|
-3--5--------------------------------------------------------------------------|
-------------------------------------------------------------------------------|
                 implied harmony

---------------|-------------------------------10-------------------------------|
---------------|----------------------------------------------------------------|
--12-11--------|--17--14-17\16--12-16\14--11-14----11-14/16--12-16\14--11-12-11-|
-------14-12---|----14--------12--------12-------12--------12--------12---------|
------------14-|----------------------------------------------------------------|
---------------|----------------------------------------------------------------|

    full
-------------------------------------------------------------------------------|
---15^-------------------------------------------------------------------------|
----------17--14-17\16--12--16\14--11-14--11-12-14/16--12-16\14--11-12-11------|
-14---------14--------12---------12-----12-----------12--------12--------14-12-|
-------------------------------------------------------------------------------|
-------------------------------------------------------------------------------|

-------------------------10----------------------------------------------------|
-----------------------------------------------------------------7--8-----8----|
------17--14-17\16--11-14----11-14/16--12-16\14--11-12-11-9-----7----7p0-0-9p0-|
--------14--------12-------12--------12--------12----------9\7-7---------------|
-14-12-------------------------------------------------------------------------|
-------------------------------------------------------------------------------|

----------14--17-------12|(12)-10-8------7-------------------------------14-15-|
-8------8----------------|---------10-----10p8-----8------8-------8----15------|
--11p0-0-----------------|--------------------7---0--9p0-0-11p0-0----14--------|
------------------12-----|-----------------------------------------12----------|
-------------------------|-----------------------------------------------------|
-------------------------|-----------------------------------------------------|

                                           full
----7--|-10-----------12-14------10--12----------------------------------------|
---8---|--8------12-15-----15--------------------------8---8-------------------|
-/7----|--0----12--------------12------12/14^(14)-12-0--7p0-9p0-0--------------|
-------|----/12--------------10------------------------------------------------|
-------|-----------------------------------------------------------------------|
-------|-----------------------------------------------------------------------|

----------7--10p8-8p7----------------14-----------14-17--14----------15--------|
-8----8--8-----------8---8------15-17----17-15-17----------17-15--17-----------|
--11p0--9--------7----9-7-----14-----------------------------------------------|
-------------------------------------------------------------------------------|
---------------------------(17)------------------------------------------------|
-------------------------------------------------------------------------------|

-17^--(17)--------------------------------------|-8-------|
---------18^---------------8-----8-----8------8-|-8-------|
------------12/14-12---(0)--7p0-0-9p0-0-11p0-0--|-5-------|
------------------------------------------------|-----12--|
------------------------------------------------|-----12--|
------------------------------------------------|-----10--|

-------------------------------------------------------------------------------|
-------------------------------------------------------------------------------|
---------17--17\16--12-16\14--11-14--11-12-14/16--12-16\14--11-12-11-----------|
-14\12/14--14-----12--------12-----12-----------12--------12--------14-12------|
-------------------------------------------------------------------------14-12-|
-------------------------------------------------------------------------------|    

Added On December 4th, 2013

SHARE

Comments

blog comments powered by Disqus