Escape The Fate Tabs

Not Good Enough For Truth In Cliche

8 versions

TAB

            Artist: Escape the Fate
Song: Not Good Enough For Truth In Cliche
Album: Dying is Your Latest Fashion
Tuning: Dropped C (CGCFAD)


2 GUITARS (except for the last chorus)

I am 100% sure that this tab is at least 98% accurate PLEASE RATE!!


INTRO 1 (GUITAR 1)
-----------------------------------------------------------------|
-----------------------------------------------------------------|
-----4---2-----------4---0-----------0---0-----------0---0-------|
---0---0---0---0---0---0---0---0---0---0---0---0---0---0---0---0-|
-3-----------3---5-----------5---2-----------2---3-----------3---|
-----------------------------------------------------------------|
 X X X X X X X X X X X X X X X X X X X X X X X X X X X X X X X X

-------------------------------------------------------------------|
-------------------------------------------------------------------|
-----4---2-----------4---0-----------0---0-----------0---0----0R---|
---0---0---0---0---0---0---0---0---0---0---0---0---0---0---0--0R---|
-3-----------3---5-----------5---2-----------2---3------------3R---|
-------------------------------------------------------------------|
 X X X X X X X X X X X X X X X X X X X X X X X X X X X X X X
(Guitar 2 Gives feedback for INTRO 1)


INTRO 2 (GUITAR 1)
-----------------------------------------|
-----------------------------------------|
-----------------------------------------|
-55-555-5/77-777-7\55-555-555555555------|X2
-33-333-3/55-555-5\22-222-223322332------|
-----------------------------------------|

INTRO 2 (GUITAR 2)
---------------------------------------------------------|
---------------------------------------------------------|
-99-999-9/11-11-11-11-11--11\77-777-77/12-12-11-11-12-12-|
-xx-xxx-x/-x--x--x--x--x---x\xx-xxx-xx/-x--x--x--x--x--x-|X2
-77-777-7/-9--9--9--9--9---9\55-555-55/10-10--9--9-10-10-|
---------------------------------------------------------|

VERSE (GUITAR 1)
-----------------------------------------------------------------|
-----------------------------------------------------------------|
-----4---2-----------4---0-----------0---0-----------0---0-------|
---0---0---0---0---0---0---0---0---0---0---0---0---0---0---0---0-| x2
-3-----------3---5-----------5---2-----------2---3-----------3---|
-----------------------------------------------------------------|
 X X X X X X X X X X X X X X X X X X X X X X X X X X X X X X X X

(GUITAR 1 CONTINUED)
-----------------------------------------------------------------|
-----------------------------------------------------------------|
-----4---2-----------4---0-----------0---0-----------0---0-------|
---0---0---0---0---0---0---0---0---0---0---0---0---0---0---0---0-|x2
-3-----------3---5-----------5---2-----------2---3-----------3---|
-----------------------------------------------------------------|
 X X   X   X X X X X   X   X X X X X   X   X X X X X   X   X X X
*only thing different about guitar 1s verse parts is that on line 2
everything on the 3rd string/ F string is not palm muted*


VERSE (GUITAR 2)
---------------------------------------------------------------------|
-8---8---8---8---10---10---10---10---7---7---7---7---8---8---8---8---|
---7---7---7---7----7----7----7----7---7---7---7---7---7---7---7---7-|
---------------------------------------------------------------------|X4
---------------------------------------------------------------------|
---------------------------------------------------------------------|

CHORUS 1&2 (BOTH GUITARS)
-------------------------------------------------------------|
-------------------------------------------------------------|
---------4R--5R----------------------------------------------|
-5R--0R--4R--5R--5555555--5555555555555555-0000000000000000--|
-5R--0R--2R--3R--3333333--5555555555555555-0000000000000000--|
-5R--0R-------------------5555555555555555-0000000000000000--|

(BOTH GUITARS CONTINUED)
-------------------------------------|
-------------------------------------|
-------------------------------------|
-4444444444444444-5555555555555555---|x1
-2222222222222222-3333333333333333---|
-------------------------------------|

BRIDGE (GUITAR 1)
------------------------------------------------------------|
------------------------------------------------------------|
------------------------------------------------------------|
-55-555-5/77-777-7\55-555-555555555-55-555-5/77-777-9-7-5-0-|x1
-33-333-3/55-555-5\22-222-223322332-33-333-3/55-555-9-7-5-0-|
----------------------------------------------------9-7-5-0-|

Intro 2 (Guitar 2)
---------------------------------------------------------|
---------------------------------------------------------|
-99-999-9/11-11-11-11-11--11\77-777-77/12-12-11-11-12-12-|
-xx-xxx-x/-x--x--x--x--x---x\xx-xxx-xx/-x--x--x--x--x--x-|
-77-777-7/-9--9--9--9--9---9\55-555-55/10-10--9--9-10-10-|
---------------------------------------------------------|

(Guitar 2 continued)
-------------------------------------|
-------------------------------------|
-99-999-9/11-11-11-11-11-11-------7--|
-xx-xxx-x/-x--x--x--x--x--x-9-7-5-x--|X1
-77-777-7/-9--9--9--9--9--9-9-7-5-5--|
----------------------------9-7-5-0--|


REPEAT VERSE AGAIN

REPEAT CHORUS 1&2 AGAIN

REPEAT INTRO 2 AGAIN


INTERLUDE 1 (Both Guitars)
-------------------------------------------------------------------|
-----------------------------------------------------------------x-|
-----------------------------------------------------------------x-|
-5-5-5-5-5-5-5-5-2-2-2-2-2-2-2-2-4-4-4-4-4-4-4-4-4-4-4-4-4-4-4-4-x-|X4
-5-5-5-5-5-5-5-5-0-0-0-0-0-0-0-0-2-2-2-2-2-2-2-2-2-2-2-2-2-2-2-2-x-|
-5-5-5-5-5-5-5-5---------------------------------------------------|

INTERLUDE 2 (GUITAR 1)
-----------------------------------------------------------------|
-----------------------------------------------------------------|
-----4---2-----------4---0-----------0---0-----------0---0-------|
---0---0---0---0---0---0---0---0---0---0---0---0---0---0---0---0-|
-3-----------3---5-----------5---2-----------2---3-----------3---|
-----------------------------------------------------------------|
 X X X X X X X X X X X X X X X X X X X X X X X X X X X X X X X X

-------------------------------------------------------------------|
-------------------------------------------------------------------|
-----4---2-----------4---0-----------0---0-----------0---0----0R---|
---0---0---0---0---0---0---0---0---0---0---0---0---0---0---0--0R---|
-3-----------3---5-----------5---2-----------2---3------------3R---|
-------------------------------------------------------------------|
 X X X X X X X X X X X X X X X X X X X X X X X X X X X X X X


INTERLUDE 2 (GUITAR 2)
---------------------------------------------------------|
---------------------------------------------------------|
-99-999-9/11-11-11-11-11--11\77-777-77/12-12-11-11-12-12-|
-xx-xxx-x/-x--x--x--x--x---x\xx-xxx-xx/-x--x--x--x--x--x-|X2
-77-777-7/-9--9--9--9--9---9\55-555-55/10-10--9--9-10-10-|
---------------------------------------------------------|

LAST CHORUS (GUITAR 1)
-----------------------------------------|
-----------------------------------------|
-----------------------------------------|
-55-555-5/77-777-7\55-555-555555555------|X6
-33-333-3/55-555-5\22-222-223322332------|
-----------------------------------------|

LAST CHORUS (GUITAR 2)
---------------------------------------------------------|
---------------------------------------------------------|
-99-999-9/11-11-11-11-11--11\77-777-77/12-12-11-11-12-12-|
-xx-xxx-x/-x--x--x--x--x---x\xx-xxx-xx/-x--x--x--x--x--x-|X6
-77-777-7/-9--9--9--9--9---9\55-555-55/10-10--9--9-10-10-|
---------------------------------------------------------|

(GUITAR 3)(COMES IN WHEN GUITARS 1 AND 2 ARE PLAYING THE CHORUS THE 3RD TIME)
---------------------------------------------------------------------|
-8---8---8---8---10---10---10---10---7---7---7---7---8---8---8---8---|
---7---7---7---7----7----7----7----7---7---7---7---7---7---7---7---7-|
---------------------------------------------------------------------|X4
---------------------------------------------------------------------|
---------------------------------------------------------------------|

OUTRO (GUITAR 1)
----------|
----------|
----------|
-9-7-5-0R-|
-9-7-5-0R-|
-9-7-5-0R-|

(GUITAR 2)
----------|
----------|
-------7--|
-9-7-5-xR-|
-9-7-5-5R-|
-9-7-5-0R-|    

Added On December 16th, 2013

SHARE

Comments

blog comments powered by Disqus