Everlast Tabs

Lonely Road

2 versions

TAB

            Lonely Road Tab by Everlast


EVERLAST - Lonely Road
Tabbed by: TJ Urbanski

July 18, 2004

Standard Tuning
E A D G B e

CHORDS : D C# B A

MAIN RIFF
       D             C#          B           A
e|-------------------------------------------------------------------------|
B|-------------------------------------------------------------------------|
G|-------------------------------------------------------------------------|
D|-------------------------------------------------------------------------|
A|---------9------9-----9-----9-----9-----9-----7--------------------------|
E|-----10-----10-----9-----9-----7-----7-----5-----5 / 10------------------|

This is played throughout the whole song.


INTRO RIFF
e|-------------------------------------------------------------------------|
B|-----7--3--5--7----------------------------------------------------------|
G|-------------------------------------------------------------------------|
D|-------------------------------------------------------------------------|
A|-------------------------------------------------------------------------|
E|-------------------------------------------------------------------------|

Solo
e|-----10--7--5--7----5--7----5--7-----0-----------------------------------|
B|----------------------------------7-----3----0--3--0--5br----0--5--0--3--|
G|-------------------------------------------------------------------------|
D|-------------------------------------------------------------------------|
A|-------------------------------------------------------------------------|
E|-------------------------------------------------------------------------|

For the chorus just strum the chords.    

Added On December 4th, 2013

SHARE

Comments

blog comments powered by Disqus

VERSIONS

ADVERTISEMENT