Exploited Tabs

Beat The Bastards

6 versions

TAB

            Beat The Bastards Tab by Exploited


tabbed by:jeremy
artist: the exploited
album:beat the bastards
tuning: standard
*-palm mute
~-let ring for one beat
\-slide
p-pull off
h-hammer on

----------------------------------------------------------------------------
                            BEAT THE BASTARDS
----------------------------------------------------------------------------

intro

e----------------------|
b----------------------|
g----------6666-88-99--|
d--8888888-6666-88-99--| 4X
a--8888888-4444-66-77--|
e--6666666-------------|

verse

e----------------------|
b----------------------|
g----------6666-88-99--|
d--8888888-6666-88-99--| 4X
a--8888888-4444-66-77--|
e--6666666-------------|
   *******

chorus

e-------------------------------|    -----------------------------------|
b-------------------------------|    -----------------------------------|
g-------------5\4-2222-5\4-2222-|    ---------------5\4-2222-5\4-2222---|
d--1~~~~0~~~~-5\4-2222-5\4-2222-|2X  -1-1111-0-0000-5\4-2222-5\4-2222---|2X
a--1~~~~0~~~~-3\2-0000-3\2-0000-|    -1-1111-0-0000-3\2-0000-3\2-0000---|
e--1~~~~0~~~~-------------------|    -1-1111-0-0000---------------------|
                  ****     ****         ****   ****     ****     ****

after chorus guitar does this little solo thingy

e-----------|
b-----------|
g--8p-7h-9--|
d--8p-7h-9--|
a-----------|
e-----------|

repeat all that 2X

and thats it. i dont feel like doing the order

questions comments or corrections rancid_punk_2000@msn.com    

Added On December 4th, 2013

SHARE

Comments

blog comments powered by Disqus